 0
SECTION
 2
HEADER
 9
$ACADVER
 1
AC1009
 0
ENDSEC
 0
SECTION
 2
TABLES
 0
TABLE
 2
LTYPE
 70
1
 0
LTYPE
 2
CONTINUOUS
 70
64
 3
solid line
 72
65
 73
0
 40
0.0
 0
ENDTAB
 0
TABLE
 2
LAYER
 70
6
 0
LAYER
 2
0
 70
0
 62
7
 6
CONTINUOUS
 0
LAYER
 2
SZE_CIAN
 70
64
 62
7
 6
CONTINUOUS
 0
LAYER
 2
SZE_CIAN_2
 70
64
 62
7
 6
CONTINUOUS
 0
LAYER
 2
SZE_CIAN_1
 70
64
 62
7
 6
CONTINUOUS
 0
LAYER
 2
SZE_CIAN_9
 70
64
 62
7
 6
CONTINUOUS
 0
LAYER
 2
SZE_CIAN_11
 70
64
 62
7
 6
CONTINUOUS
 0
LAYER
 2
SZE_CIAN_6
 70
64
 62
7
 6
CONTINUOUS
 0
LAYER
 2
SZE_CIAN_3
 70
64
 62
7
 6
CONTINUOUS
 0
LAYER
 2
SZE_CIAN_4
 70
64
 62
7
 6
CONTINUOUS
 0
LAYER
 2
SZE_CIAN_5
 70
64
 62
7
 6
CONTINUOUS
 0
LAYER
 2
SZE_CIAN_7
 70
64
 62
7
 6
CONTINUOUS
 0
LAYER
 2
SZE_CIAN_10
 70
64
 62
7
 6
CONTINUOUS
 0
LAYER
 2
SZE_CIAN_8
 70
64
 62
7
 6
CONTINUOUS
 0
ENDTAB
 0
ENDSEC
 0
SECTION
 2
BLOCKS
 0
ENDSEC
 0
SECTION
 2
ENTITIES
 0
POLYLINE
 8
SZE_CIAN
 66
1
 10
0.0
 20
0.0
 30
0.0
 70
64
 71
24
 72
26
 0
VERTEX
 8
SZE_CIAN
 10
-0.1896
 20
-0.1996
 30
-0.65
 70
192
 0
VERTEX
 8
SZE_CIAN
 10
0.1896
 20
-0.1996
 30
-0.65
 70
192
 0
VERTEX
 8
SZE_CIAN
 10
0.1896
 20
-0.1844
 30
-0.65
 70
192
 0
VERTEX
 8
SZE_CIAN
 10
-0.1896
 20
-0.1844
 30
-0.65
 70
192
 0
VERTEX
 8
SZE_CIAN
 10
-0.1896
 20
-0.2
 30
-0.6496
 70
192
 0
VERTEX
 8
SZE_CIAN
 10
0.1896
 20
-0.2
 30
-0.6496
 70
192
 0
VERTEX
 8
SZE_CIAN
 10
0.19
 20
-0.1996
 30
-0.6496
 70
192
 0
VERTEX
 8
SZE_CIAN
 10
0.19
 20
-0.1844
 30
-0.6496
 70
192
 0
VERTEX
 8
SZE_CIAN
 10
0.1896
 20
-0.184
 30
-0.6496
 70
192
 0
VERTEX
 8
SZE_CIAN
 10
-0.1896
 20
-0.184
 30
-0.6496
 70
192
 0
VERTEX
 8
SZE_CIAN
 10
-0.19
 20
-0.1844
 30
-0.6496
 70
192
 0
VERTEX
 8
SZE_CIAN
 10
-0.19
 20
-0.1996
 30
-0.6496
 70
192
 0
VERTEX
 8
SZE_CIAN
 10
-0.1896
 20
-0.2
 30
0.6496
 70
192
 0
VERTEX
 8
SZE_CIAN
 10
0.1896
 20
-0.2
 30
0.6496
 70
192
 0
VERTEX
 8
SZE_CIAN
 10
0.19
 20
-0.1996
 30
0.6496
 70
192
 0
VERTEX
 8
SZE_CIAN
 10
0.19
 20
-0.1844
 30
0.6496
 70
192
 0
VERTEX
 8
SZE_CIAN
 10
0.1896
 20
-0.184
 30
0.6496
 70
192
 0
VERTEX
 8
SZE_CIAN
 10
-0.1896
 20
-0.184
 30
0.6496
 70
192
 0
VERTEX
 8
SZE_CIAN
 10
-0.19
 20
-0.1844
 30
0.6496
 70
192
 0
VERTEX
 8
SZE_CIAN
 10
-0.19
 20
-0.1996
 30
0.6496
 70
192
 0
VERTEX
 8
SZE_CIAN
 10
-0.1896
 20
-0.1996
 30
0.65
 70
192
 0
VERTEX
 8
SZE_CIAN
 10
0.1896
 20
-0.1996
 30
0.65
 70
192
 0
VERTEX
 8
SZE_CIAN
 10
0.1896
 20
-0.1844
 30
0.65
 70
192
 0
VERTEX
 8
SZE_CIAN
 10
-0.1896
 20
-0.1844
 30
0.65
 70
192
 0
VERTEX
 8
SZE_CIAN
 10
0
 20
0
 30
0
 70
128
 71
1
 72
5
 73
6
 74
2
 0
VERTEX
 8
SZE_CIAN
 10
0
 20
0
 30
0
 70
128
 71
5
 72
13
 73
14
 74
6
 0
VERTEX
 8
SZE_CIAN
 10
0
 20
0
 30
0
 70
128
 71
13
 72
21
 73
22
 74
14
 0
VERTEX
 8
SZE_CIAN
 10
0
 20
0
 30
0
 70
128
 71
2
 72
6
 73
7
 74
7
 0
VERTEX
 8
SZE_CIAN
 10
0
 20
0
 30
0
 70
128
 71
6
 72
14
 73
15
 74
7
 0
VERTEX
 8
SZE_CIAN
 10
0
 20
0
 30
0
 70
128
 71
14
 72
22
 73
15
 74
15
 0
VERTEX
 8
SZE_CIAN
 10
0
 20
0
 30
0
 70
128
 71
2
 72
7
 73
8
 74
3
 0
VERTEX
 8
SZE_CIAN
 10
0
 20
0
 30
0
 70
128
 71
7
 72
15
 73
16
 74
8
 0
VERTEX
 8
SZE_CIAN
 10
0
 20
0
 30
0
 70
128
 71
15
 72
22
 73
23
 74
16
 0
VERTEX
 8
SZE_CIAN
 10
0
 20
0
 30
0
 70
128
 71
3
 72
8
 73
9
 74
9
 0
VERTEX
 8
SZE_CIAN
 10
0
 20
0
 30
0
 70
128
 71
8
 72
16
 73
17
 74
9
 0
VERTEX
 8
SZE_CIAN
 10
0
 20
0
 30
0
 70
128
 71
16
 72
23
 73
17
 74
17
 0
VERTEX
 8
SZE_CIAN
 10
0
 20
0
 30
0
 70
128
 71
3
 72
9
 73
10
 74
4
 0
VERTEX
 8
SZE_CIAN
 10
0
 20
0
 30
0
 70
128
 71
9
 72
17
 73
18
 74
10
 0
VERTEX
 8
SZE_CIAN
 10
0
 20
0
 30
0
 70
128
 71
17
 72
23
 73
24
 74
18
 0
VERTEX
 8
SZE_CIAN
 10
0
 20
0
 30
0
 70
128
 71
4
 72
10
 73
11
 74
11
 0
VERTEX
 8
SZE_CIAN
 10
0
 20
0
 30
0
 70
128
 71
10
 72
18
 73
19
 74
11
 0
VERTEX
 8
SZE_CIAN
 10
0
 20
0
 30
0
 70
128
 71
18
 72
24
 73
19
 74
19
 0
VERTEX
 8
SZE_CIAN
 10
0
 20
0
 30
0
 70
128
 71
4
 72
11
 73
12
 74
1
 0
VERTEX
 8
SZE_CIAN
 10
0
 20
0
 30
0
 70
128
 71
11
 72
19
 73
20
 74
12
 0
VERTEX
 8
SZE_CIAN
 10
0
 20
0
 30
0
 70
128
 71
19
 72
24
 73
21
 74
20
 0
VERTEX
 8
SZE_CIAN
 10
0
 20
0
 30
0
 70
128
 71
1
 72
12
 73
5
 74
5
 0
VERTEX
 8
SZE_CIAN
 10
0
 20
0
 30
0
 70
128
 71
12
 72
20
 73
13
 74
5
 0
VERTEX
 8
SZE_CIAN
 10
0
 20
0
 30
0
 70
128
 71
20
 72
21
 73
13
 74
13
 0
VERTEX
 8
SZE_CIAN
 10
0
 20
0
 30
0
 70
128
 71
21
 72
24
 73
23
 74
22
 0
VERTEX
 8
SZE_CIAN
 10
0
 20
0
 30
0
 70
128
 71
1
 72
2
 73
3
 74
4
 0
SEQEND
 0
POLYLINE
 8
SZE_CIAN_2
 66
1
 10
0.0
 20
0.0
 30
0.0
 70
64
 71
24
 72
26
 0
VERTEX
 8
SZE_CIAN_2
 10
-0.1896
 20
0.1844
 30
-0.65
 70
192
 0
VERTEX
 8
SZE_CIAN_2
 10
0.1896
 20
0.1844
 30
-0.65
 70
192
 0
VERTEX
 8
SZE_CIAN_2
 10
0.1896
 20
0.1996
 30
-0.65
 70
192
 0
VERTEX
 8
SZE_CIAN_2
 10
-0.1896
 20
0.1996
 30
-0.65
 70
192
 0
VERTEX
 8
SZE_CIAN_2
 10
-0.1896
 20
0.184
 30
-0.6496
 70
192
 0
VERTEX
 8
SZE_CIAN_2
 10
0.1896
 20
0.184
 30
-0.6496
 70
192
 0
VERTEX
 8
SZE_CIAN_2
 10
0.19
 20
0.1844
 30
-0.6496
 70
192
 0
VERTEX
 8
SZE_CIAN_2
 10
0.19
 20
0.1996
 30
-0.6496
 70
192
 0
VERTEX
 8
SZE_CIAN_2
 10
0.1896
 20
0.2
 30
-0.6496
 70
192
 0
VERTEX
 8
SZE_CIAN_2
 10
-0.1896
 20
0.2
 30
-0.6496
 70
192
 0
VERTEX
 8
SZE_CIAN_2
 10
-0.19
 20
0.1996
 30
-0.6496
 70
192
 0
VERTEX
 8
SZE_CIAN_2
 10
-0.19
 20
0.1844
 30
-0.6496
 70
192
 0
VERTEX
 8
SZE_CIAN_2
 10
-0.1896
 20
0.184
 30
0.6496
 70
192
 0
VERTEX
 8
SZE_CIAN_2
 10
0.1896
 20
0.184
 30
0.6496
 70
192
 0
VERTEX
 8
SZE_CIAN_2
 10
0.19
 20
0.1844
 30
0.6496
 70
192
 0
VERTEX
 8
SZE_CIAN_2
 10
0.19
 20
0.1996
 30
0.6496
 70
192
 0
VERTEX
 8
SZE_CIAN_2
 10
0.1896
 20
0.2
 30
0.6496
 70
192
 0
VERTEX
 8
SZE_CIAN_2
 10
-0.1896
 20
0.2
 30
0.6496
 70
192
 0
VERTEX
 8
SZE_CIAN_2
 10
-0.19
 20
0.1996
 30
0.6496
 70
192
 0
VERTEX
 8
SZE_CIAN_2
 10
-0.19
 20
0.1844
 30
0.6496
 70
192
 0
VERTEX
 8
SZE_CIAN_2
 10
-0.1896
 20
0.1844
 30
0.65
 70
192
 0
VERTEX
 8
SZE_CIAN_2
 10
0.1896
 20
0.1844
 30
0.65
 70
192
 0
VERTEX
 8
SZE_CIAN_2
 10
0.1896
 20
0.1996
 30
0.65
 70
192
 0
VERTEX
 8
SZE_CIAN_2
 10
-0.1896
 20
0.1996
 30
0.65
 70
192
 0
VERTEX
 8
SZE_CIAN_2
 10
0
 20
0
 30
0
 70
128
 71
1
 72
5
 73
6
 74
2
 0
VERTEX
 8
SZE_CIAN_2
 10
0
 20
0
 30
0
 70
128
 71
5
 72
13
 73
14
 74
6
 0
VERTEX
 8
SZE_CIAN_2
 10
0
 20
0
 30
0
 70
128
 71
13
 72
21
 73
22
 74
14
 0
VERTEX
 8
SZE_CIAN_2
 10
0
 20
0
 30
0
 70
128
 71
2
 72
6
 73
7
 74
7
 0
VERTEX
 8
SZE_CIAN_2
 10
0
 20
0
 30
0
 70
128
 71
6
 72
14
 73
15
 74
7
 0
VERTEX
 8
SZE_CIAN_2
 10
0
 20
0
 30
0
 70
128
 71
14
 72
22
 73
15
 74
15
 0
VERTEX
 8
SZE_CIAN_2
 10
0
 20
0
 30
0
 70
128
 71
2
 72
7
 73
8
 74
3
 0
VERTEX
 8
SZE_CIAN_2
 10
0
 20
0
 30
0
 70
128
 71
7
 72
15
 73
16
 74
8
 0
VERTEX
 8
SZE_CIAN_2
 10
0
 20
0
 30
0
 70
128
 71
15
 72
22
 73
23
 74
16
 0
VERTEX
 8
SZE_CIAN_2
 10
0
 20
0
 30
0
 70
128
 71
3
 72
8
 73
9
 74
9
 0
VERTEX
 8
SZE_CIAN_2
 10
0
 20
0
 30
0
 70
128
 71
8
 72
16
 73
17
 74
9
 0
VERTEX
 8
SZE_CIAN_2
 10
0
 20
0
 30
0
 70
128
 71
16
 72
23
 73
17
 74
17
 0
VERTEX
 8
SZE_CIAN_2
 10
0
 20
0
 30
0
 70
128
 71
3
 72
9
 73
10
 74
4
 0
VERTEX
 8
SZE_CIAN_2
 10
0
 20
0
 30
0
 70
128
 71
9
 72
17
 73
18
 74
10
 0
VERTEX
 8
SZE_CIAN_2
 10
0
 20
0
 30
0
 70
128
 71
17
 72
23
 73
24
 74
18
 0
VERTEX
 8
SZE_CIAN_2
 10
0
 20
0
 30
0
 70
128
 71
4
 72
10
 73
11
 74
11
 0
VERTEX
 8
SZE_CIAN_2
 10
0
 20
0
 30
0
 70
128
 71
10
 72
18
 73
19
 74
11
 0
VERTEX
 8
SZE_CIAN_2
 10
0
 20
0
 30
0
 70
128
 71
18
 72
24
 73
19
 74
19
 0
VERTEX
 8
SZE_CIAN_2
 10
0
 20
0
 30
0
 70
128
 71
4
 72
11
 73
12
 74
1
 0
VERTEX
 8
SZE_CIAN_2
 10
0
 20
0
 30
0
 70
128
 71
11
 72
19
 73
20
 74
12
 0
VERTEX
 8
SZE_CIAN_2
 10
0
 20
0
 30
0
 70
128
 71
19
 72
24
 73
21
 74
20
 0
VERTEX
 8
SZE_CIAN_2
 10
0
 20
0
 30
0
 70
128
 71
1
 72
12
 73
5
 74
5
 0
VERTEX
 8
SZE_CIAN_2
 10
0
 20
0
 30
0
 70
128
 71
12
 72
20
 73
13
 74
5
 0
VERTEX
 8
SZE_CIAN_2
 10
0
 20
0
 30
0
 70
128
 71
20
 72
21
 73
13
 74
13
 0
VERTEX
 8
SZE_CIAN_2
 10
0
 20
0
 30
0
 70
128
 71
21
 72
24
 73
23
 74
22
 0
VERTEX
 8
SZE_CIAN_2
 10
0
 20
0
 30
0
 70
128
 71
1
 72
2
 73
3
 74
4
 0
SEQEND
 0
POLYLINE
 8
SZE_CIAN_1
 66
1
 10
0.0
 20
0.0
 30
0.0
 70
64
 71
24
 72
26
 0
VERTEX
 8
SZE_CIAN_1
 10
-0.1686
 20
-0.1836
 30
-0.65
 70
192
 0
VERTEX
 8
SZE_CIAN_1
 10
0.1896
 20
-0.1836
 30
-0.65
 70
192
 0
VERTEX
 8
SZE_CIAN_1
 10
0.1896
 20
0.1836
 30
-0.65
 70
192
 0
VERTEX
 8
SZE_CIAN_1
 10
-0.1686
 20
0.1836
 30
-0.65
 70
192
 0
VERTEX
 8
SZE_CIAN_1
 10
-0.1686
 20
-0.184
 30
-0.6496
 70
192
 0
VERTEX
 8
SZE_CIAN_1
 10
0.1896
 20
-0.184
 30
-0.6496
 70
192
 0
VERTEX
 8
SZE_CIAN_1
 10
0.19
 20
-0.1836
 30
-0.6496
 70
192
 0
VERTEX
 8
SZE_CIAN_1
 10
0.19
 20
0.1836
 30
-0.6496
 70
192
 0
VERTEX
 8
SZE_CIAN_1
 10
0.1896
 20
0.184
 30
-0.6496
 70
192
 0
VERTEX
 8
SZE_CIAN_1
 10
-0.1686
 20
0.184
 30
-0.6496
 70
192
 0
VERTEX
 8
SZE_CIAN_1
 10
-0.169
 20
0.1836
 30
-0.6496
 70
192
 0
VERTEX
 8
SZE_CIAN_1
 10
-0.169
 20
-0.1836
 30
-0.6496
 70
192
 0
VERTEX
 8
SZE_CIAN_1
 10
-0.1686
 20
-0.184
 30
-0.6344
 70
192
 0
VERTEX
 8
SZE_CIAN_1
 10
0.1896
 20
-0.184
 30
-0.6344
 70
192
 0
VERTEX
 8
SZE_CIAN_1
 10
0.19
 20
-0.1836
 30
-0.6344
 70
192
 0
VERTEX
 8
SZE_CIAN_1
 10
0.19
 20
0.1836
 30
-0.6344
 70
192
 0
VERTEX
 8
SZE_CIAN_1
 10
0.1896
 20
0.184
 30
-0.6344
 70
192
 0
VERTEX
 8
SZE_CIAN_1
 10
-0.1686
 20
0.184
 30
-0.6344
 70
192
 0
VERTEX
 8
SZE_CIAN_1
 10
-0.169
 20
0.1836
 30
-0.6344
 70
192
 0
VERTEX
 8
SZE_CIAN_1
 10
-0.169
 20
-0.1836
 30
-0.6344
 70
192
 0
VERTEX
 8
SZE_CIAN_1
 10
-0.1686
 20
-0.1836
 30
-0.634
 70
192
 0
VERTEX
 8
SZE_CIAN_1
 10
0.1896
 20
-0.1836
 30
-0.634
 70
192
 0
VERTEX
 8
SZE_CIAN_1
 10
0.1896
 20
0.1836
 30
-0.634
 70
192
 0
VERTEX
 8
SZE_CIAN_1
 10
-0.1686
 20
0.1836
 30
-0.634
 70
192
 0
VERTEX
 8
SZE_CIAN_1
 10
0
 20
0
 30
0
 70
128
 71
1
 72
5
 73
6
 74
2
 0
VERTEX
 8
SZE_CIAN_1
 10
0
 20
0
 30
0
 70
128
 71
5
 72
13
 73
14
 74
6
 0
VERTEX
 8
SZE_CIAN_1
 10
0
 20
0
 30
0
 70
128
 71
13
 72
21
 73
22
 74
14
 0
VERTEX
 8
SZE_CIAN_1
 10
0
 20
0
 30
0
 70
128
 71
2
 72
6
 73
7
 74
7
 0
VERTEX
 8
SZE_CIAN_1
 10
0
 20
0
 30
0
 70
128
 71
6
 72
14
 73
15
 74
7
 0
VERTEX
 8
SZE_CIAN_1
 10
0
 20
0
 30
0
 70
128
 71
14
 72
22
 73
15
 74
15
 0
VERTEX
 8
SZE_CIAN_1
 10
0
 20
0
 30
0
 70
128
 71
2
 72
7
 73
8
 74
3
 0
VERTEX
 8
SZE_CIAN_1
 10
0
 20
0
 30
0
 70
128
 71
7
 72
15
 73
16
 74
8
 0
VERTEX
 8
SZE_CIAN_1
 10
0
 20
0
 30
0
 70
128
 71
15
 72
22
 73
23
 74
16
 0
VERTEX
 8
SZE_CIAN_1
 10
0
 20
0
 30
0
 70
128
 71
3
 72
8
 73
9
 74
9
 0
VERTEX
 8
SZE_CIAN_1
 10
0
 20
0
 30
0
 70
128
 71
8
 72
16
 73
17
 74
9
 0
VERTEX
 8
SZE_CIAN_1
 10
0
 20
0
 30
0
 70
128
 71
16
 72
23
 73
17
 74
17
 0
VERTEX
 8
SZE_CIAN_1
 10
0
 20
0
 30
0
 70
128
 71
3
 72
9
 73
10
 74
4
 0
VERTEX
 8
SZE_CIAN_1
 10
0
 20
0
 30
0
 70
128
 71
9
 72
17
 73
18
 74
10
 0
VERTEX
 8
SZE_CIAN_1
 10
0
 20
0
 30
0
 70
128
 71
17
 72
23
 73
24
 74
18
 0
VERTEX
 8
SZE_CIAN_1
 10
0
 20
0
 30
0
 70
128
 71
4
 72
10
 73
11
 74
11
 0
VERTEX
 8
SZE_CIAN_1
 10
0
 20
0
 30
0
 70
128
 71
10
 72
18
 73
19
 74
11
 0
VERTEX
 8
SZE_CIAN_1
 10
0
 20
0
 30
0
 70
128
 71
18
 72
24
 73
19
 74
19
 0
VERTEX
 8
SZE_CIAN_1
 10
0
 20
0
 30
0
 70
128
 71
4
 72
11
 73
12
 74
1
 0
VERTEX
 8
SZE_CIAN_1
 10
0
 20
0
 30
0
 70
128
 71
11
 72
19
 73
20
 74
12
 0
VERTEX
 8
SZE_CIAN_1
 10
0
 20
0
 30
0
 70
128
 71
19
 72
24
 73
21
 74
20
 0
VERTEX
 8
SZE_CIAN_1
 10
0
 20
0
 30
0
 70
128
 71
1
 72
12
 73
5
 74
5
 0
VERTEX
 8
SZE_CIAN_1
 10
0
 20
0
 30
0
 70
128
 71
12
 72
20
 73
13
 74
5
 0
VERTEX
 8
SZE_CIAN_1
 10
0
 20
0
 30
0
 70
128
 71
20
 72
21
 73
13
 74
13
 0
VERTEX
 8
SZE_CIAN_1
 10
0
 20
0
 30
0
 70
128
 71
21
 72
24
 73
23
 74
22
 0
VERTEX
 8
SZE_CIAN_1
 10
0
 20
0
 30
0
 70
128
 71
1
 72
2
 73
3
 74
4
 0
SEQEND
 0
POLYLINE
 8
SZE_CIAN_9
 66
1
 10
0.0
 20
0.0
 30
0.0
 70
64
 71
24
 72
26
 0
VERTEX
 8
SZE_CIAN_9
 10
-0.165
 20
-0.1836
 30
-0.1374
 70
192
 0
VERTEX
 8
SZE_CIAN_9
 10
0.1642
 20
-0.1836
 30
-0.1374
 70
192
 0
VERTEX
 8
SZE_CIAN_9
 10
0.1642
 20
0.1836
 30
-0.1374
 70
192
 0
VERTEX
 8
SZE_CIAN_9
 10
-0.165
 20
0.1836
 30
-0.1374
 70
192
 0
VERTEX
 8
SZE_CIAN_9
 10
-0.165
 20
-0.184
 30
-0.137
 70
192
 0
VERTEX
 8
SZE_CIAN_9
 10
0.1642
 20
-0.184
 30
-0.137
 70
192
 0
VERTEX
 8
SZE_CIAN_9
 10
0.1646
 20
-0.1836
 30
-0.137
 70
192
 0
VERTEX
 8
SZE_CIAN_9
 10
0.1646
 20
0.1836
 30
-0.137
 70
192
 0
VERTEX
 8
SZE_CIAN_9
 10
0.1642
 20
0.184
 30
-0.137
 70
192
 0
VERTEX
 8
SZE_CIAN_9
 10
-0.165
 20
0.184
 30
-0.137
 70
192
 0
VERTEX
 8
SZE_CIAN_9
 10
-0.1654
 20
0.1836
 30
-0.137
 70
192
 0
VERTEX
 8
SZE_CIAN_9
 10
-0.1654
 20
-0.1836
 30
-0.137
 70
192
 0
VERTEX
 8
SZE_CIAN_9
 10
-0.165
 20
-0.184
 30
-0.1218
 70
192
 0
VERTEX
 8
SZE_CIAN_9
 10
0.1642
 20
-0.184
 30
-0.1218
 70
192
 0
VERTEX
 8
SZE_CIAN_9
 10
0.1646
 20
-0.1836
 30
-0.1218
 70
192
 0
VERTEX
 8
SZE_CIAN_9
 10
0.1646
 20
0.1836
 30
-0.1218
 70
192
 0
VERTEX
 8
SZE_CIAN_9
 10
0.1642
 20
0.184
 30
-0.1218
 70
192
 0
VERTEX
 8
SZE_CIAN_9
 10
-0.165
 20
0.184
 30
-0.1218
 70
192
 0
VERTEX
 8
SZE_CIAN_9
 10
-0.1654
 20
0.1836
 30
-0.1218
 70
192
 0
VERTEX
 8
SZE_CIAN_9
 10
-0.1654
 20
-0.1836
 30
-0.1218
 70
192
 0
VERTEX
 8
SZE_CIAN_9
 10
-0.165
 20
-0.1836
 30
-0.1214
 70
192
 0
VERTEX
 8
SZE_CIAN_9
 10
0.1642
 20
-0.1836
 30
-0.1214
 70
192
 0
VERTEX
 8
SZE_CIAN_9
 10
0.1642
 20
0.1836
 30
-0.1214
 70
192
 0
VERTEX
 8
SZE_CIAN_9
 10
-0.165
 20
0.1836
 30
-0.1214
 70
192
 0
VERTEX
 8
SZE_CIAN_9
 10
0
 20
0
 30
0
 70
128
 71
1
 72
5
 73
6
 74
2
 0
VERTEX
 8
SZE_CIAN_9
 10
0
 20
0
 30
0
 70
128
 71
5
 72
13
 73
14
 74
6
 0
VERTEX
 8
SZE_CIAN_9
 10
0
 20
0
 30
0
 70
128
 71
13
 72
21
 73
22
 74
14
 0
VERTEX
 8
SZE_CIAN_9
 10
0
 20
0
 30
0
 70
128
 71
2
 72
6
 73
7
 74
7
 0
VERTEX
 8
SZE_CIAN_9
 10
0
 20
0
 30
0
 70
128
 71
6
 72
14
 73
15
 74
7
 0
VERTEX
 8
SZE_CIAN_9
 10
0
 20
0
 30
0
 70
128
 71
14
 72
22
 73
15
 74
15
 0
VERTEX
 8
SZE_CIAN_9
 10
0
 20
0
 30
0
 70
128
 71
2
 72
7
 73
8
 74
3
 0
VERTEX
 8
SZE_CIAN_9
 10
0
 20
0
 30
0
 70
128
 71
7
 72
15
 73
16
 74
8
 0
VERTEX
 8
SZE_CIAN_9
 10
0
 20
0
 30
0
 70
128
 71
15
 72
22
 73
23
 74
16
 0
VERTEX
 8
SZE_CIAN_9
 10
0
 20
0
 30
0
 70
128
 71
3
 72
8
 73
9
 74
9
 0
VERTEX
 8
SZE_CIAN_9
 10
0
 20
0
 30
0
 70
128
 71
8
 72
16
 73
17
 74
9
 0
VERTEX
 8
SZE_CIAN_9
 10
0
 20
0
 30
0
 70
128
 71
16
 72
23
 73
17
 74
17
 0
VERTEX
 8
SZE_CIAN_9
 10
0
 20
0
 30
0
 70
128
 71
3
 72
9
 73
10
 74
4
 0
VERTEX
 8
SZE_CIAN_9
 10
0
 20
0
 30
0
 70
128
 71
9
 72
17
 73
18
 74
10
 0
VERTEX
 8
SZE_CIAN_9
 10
0
 20
0
 30
0
 70
128
 71
17
 72
23
 73
24
 74
18
 0
VERTEX
 8
SZE_CIAN_9
 10
0
 20
0
 30
0
 70
128
 71
4
 72
10
 73
11
 74
11
 0
VERTEX
 8
SZE_CIAN_9
 10
0
 20
0
 30
0
 70
128
 71
10
 72
18
 73
19
 74
11
 0
VERTEX
 8
SZE_CIAN_9
 10
0
 20
0
 30
0
 70
128
 71
18
 72
24
 73
19
 74
19
 0
VERTEX
 8
SZE_CIAN_9
 10
0
 20
0
 30
0
 70
128
 71
4
 72
11
 73
12
 74
1
 0
VERTEX
 8
SZE_CIAN_9
 10
0
 20
0
 30
0
 70
128
 71
11
 72
19
 73
20
 74
12
 0
VERTEX
 8
SZE_CIAN_9
 10
0
 20
0
 30
0
 70
128
 71
19
 72
24
 73
21
 74
20
 0
VERTEX
 8
SZE_CIAN_9
 10
0
 20
0
 30
0
 70
128
 71
1
 72
12
 73
5
 74
5
 0
VERTEX
 8
SZE_CIAN_9
 10
0
 20
0
 30
0
 70
128
 71
12
 72
20
 73
13
 74
5
 0
VERTEX
 8
SZE_CIAN_9
 10
0
 20
0
 30
0
 70
128
 71
20
 72
21
 73
13
 74
13
 0
VERTEX
 8
SZE_CIAN_9
 10
0
 20
0
 30
0
 70
128
 71
21
 72
24
 73
23
 74
22
 0
VERTEX
 8
SZE_CIAN_9
 10
0
 20
0
 30
0
 70
128
 71
1
 72
2
 73
3
 74
4
 0
SEQEND
 0
POLYLINE
 8
SZE_CIAN_11
 66
1
 10
0.0
 20
0.0
 30
0.0
 70
64
 71
24
 72
26
 0
VERTEX
 8
SZE_CIAN_11
 10
-0.1596
 20
-0.1836
 30
0.2678
 70
192
 0
VERTEX
 8
SZE_CIAN_11
 10
0.1896
 20
-0.1836
 30
0.2678
 70
192
 0
VERTEX
 8
SZE_CIAN_11
 10
0.1896
 20
0.1836
 30
0.2678
 70
192
 0
VERTEX
 8
SZE_CIAN_11
 10
-0.1596
 20
0.1836
 30
0.2678
 70
192
 0
VERTEX
 8
SZE_CIAN_11
 10
-0.1596
 20
-0.184
 30
0.2682
 70
192
 0
VERTEX
 8
SZE_CIAN_11
 10
0.1896
 20
-0.184
 30
0.2682
 70
192
 0
VERTEX
 8
SZE_CIAN_11
 10
0.19
 20
-0.1836
 30
0.2682
 70
192
 0
VERTEX
 8
SZE_CIAN_11
 10
0.19
 20
0.1836
 30
0.2682
 70
192
 0
VERTEX
 8
SZE_CIAN_11
 10
0.1896
 20
0.184
 30
0.2682
 70
192
 0
VERTEX
 8
SZE_CIAN_11
 10
-0.1596
 20
0.184
 30
0.2682
 70
192
 0
VERTEX
 8
SZE_CIAN_11
 10
-0.16
 20
0.1836
 30
0.2682
 70
192
 0
VERTEX
 8
SZE_CIAN_11
 10
-0.16
 20
-0.1836
 30
0.2682
 70
192
 0
VERTEX
 8
SZE_CIAN_11
 10
-0.1596
 20
-0.184
 30
0.2834
 70
192
 0
VERTEX
 8
SZE_CIAN_11
 10
0.1896
 20
-0.184
 30
0.2834
 70
192
 0
VERTEX
 8
SZE_CIAN_11
 10
0.19
 20
-0.1836
 30
0.2834
 70
192
 0
VERTEX
 8
SZE_CIAN_11
 10
0.19
 20
0.1836
 30
0.2834
 70
192
 0
VERTEX
 8
SZE_CIAN_11
 10
0.1896
 20
0.184
 30
0.2834
 70
192
 0
VERTEX
 8
SZE_CIAN_11
 10
-0.1596
 20
0.184
 30
0.2834
 70
192
 0
VERTEX
 8
SZE_CIAN_11
 10
-0.16
 20
0.1836
 30
0.2834
 70
192
 0
VERTEX
 8
SZE_CIAN_11
 10
-0.16
 20
-0.1836
 30
0.2834
 70
192
 0
VERTEX
 8
SZE_CIAN_11
 10
-0.1596
 20
-0.1836
 30
0.2838
 70
192
 0
VERTEX
 8
SZE_CIAN_11
 10
0.1896
 20
-0.1836
 30
0.2838
 70
192
 0
VERTEX
 8
SZE_CIAN_11
 10
0.1896
 20
0.1836
 30
0.2838
 70
192
 0
VERTEX
 8
SZE_CIAN_11
 10
-0.1596
 20
0.1836
 30
0.2838
 70
192
 0
VERTEX
 8
SZE_CIAN_11
 10
0
 20
0
 30
0
 70
128
 71
1
 72
5
 73
6
 74
2
 0
VERTEX
 8
SZE_CIAN_11
 10
0
 20
0
 30
0
 70
128
 71
5
 72
13
 73
14
 74
6
 0
VERTEX
 8
SZE_CIAN_11
 10
0
 20
0
 30
0
 70
128
 71
13
 72
21
 73
22
 74
14
 0
VERTEX
 8
SZE_CIAN_11
 10
0
 20
0
 30
0
 70
128
 71
2
 72
6
 73
7
 74
7
 0
VERTEX
 8
SZE_CIAN_11
 10
0
 20
0
 30
0
 70
128
 71
6
 72
14
 73
15
 74
7
 0
VERTEX
 8
SZE_CIAN_11
 10
0
 20
0
 30
0
 70
128
 71
14
 72
22
 73
15
 74
15
 0
VERTEX
 8
SZE_CIAN_11
 10
0
 20
0
 30
0
 70
128
 71
2
 72
7
 73
8
 74
3
 0
VERTEX
 8
SZE_CIAN_11
 10
0
 20
0
 30
0
 70
128
 71
7
 72
15
 73
16
 74
8
 0
VERTEX
 8
SZE_CIAN_11
 10
0
 20
0
 30
0
 70
128
 71
15
 72
22
 73
23
 74
16
 0
VERTEX
 8
SZE_CIAN_11
 10
0
 20
0
 30
0
 70
128
 71
3
 72
8
 73
9
 74
9
 0
VERTEX
 8
SZE_CIAN_11
 10
0
 20
0
 30
0
 70
128
 71
8
 72
16
 73
17
 74
9
 0
VERTEX
 8
SZE_CIAN_11
 10
0
 20
0
 30
0
 70
128
 71
16
 72
23
 73
17
 74
17
 0
VERTEX
 8
SZE_CIAN_11
 10
0
 20
0
 30
0
 70
128
 71
3
 72
9
 73
10
 74
4
 0
VERTEX
 8
SZE_CIAN_11
 10
0
 20
0
 30
0
 70
128
 71
9
 72
17
 73
18
 74
10
 0
VERTEX
 8
SZE_CIAN_11
 10
0
 20
0
 30
0
 70
128
 71
17
 72
23
 73
24
 74
18
 0
VERTEX
 8
SZE_CIAN_11
 10
0
 20
0
 30
0
 70
128
 71
4
 72
10
 73
11
 74
11
 0
VERTEX
 8
SZE_CIAN_11
 10
0
 20
0
 30
0
 70
128
 71
10
 72
18
 73
19
 74
11
 0
VERTEX
 8
SZE_CIAN_11
 10
0
 20
0
 30
0
 70
128
 71
18
 72
24
 73
19
 74
19
 0
VERTEX
 8
SZE_CIAN_11
 10
0
 20
0
 30
0
 70
128
 71
4
 72
11
 73
12
 74
1
 0
VERTEX
 8
SZE_CIAN_11
 10
0
 20
0
 30
0
 70
128
 71
11
 72
19
 73
20
 74
12
 0
VERTEX
 8
SZE_CIAN_11
 10
0
 20
0
 30
0
 70
128
 71
19
 72
24
 73
21
 74
20
 0
VERTEX
 8
SZE_CIAN_11
 10
0
 20
0
 30
0
 70
128
 71
1
 72
12
 73
5
 74
5
 0
VERTEX
 8
SZE_CIAN_11
 10
0
 20
0
 30
0
 70
128
 71
12
 72
20
 73
13
 74
5
 0
VERTEX
 8
SZE_CIAN_11
 10
0
 20
0
 30
0
 70
128
 71
20
 72
21
 73
13
 74
13
 0
VERTEX
 8
SZE_CIAN_11
 10
0
 20
0
 30
0
 70
128
 71
21
 72
24
 73
23
 74
22
 0
VERTEX
 8
SZE_CIAN_11
 10
0
 20
0
 30
0
 70
128
 71
1
 72
2
 73
3
 74
4
 0
SEQEND
 0
POLYLINE
 8
SZE_CIAN_6
 66
1
 10
0.0
 20
0.0
 30
0.0
 70
64
 71
24
 72
26
 0
VERTEX
 8
SZE_CIAN_6
 10
-0.1901
 20
-0.2016
 30
0.65
 70
192
 0
VERTEX
 8
SZE_CIAN_6
 10
0.2131
 20
-0.2016
 30
0.65
 70
192
 0
VERTEX
 8
SZE_CIAN_6
 10
0.2131
 20
0.2016
 30
0.65
 70
192
 0
VERTEX
 8
SZE_CIAN_6
 10
-0.1901
 20
0.2016
 30
0.65
 70
192
 0
VERTEX
 8
SZE_CIAN_6
 10
-0.1901
 20
-0.202
 30
0.6504
 70
192
 0
VERTEX
 8
SZE_CIAN_6
 10
0.2131
 20
-0.202
 30
0.6504
 70
192
 0
VERTEX
 8
SZE_CIAN_6
 10
0.2135
 20
-0.2016
 30
0.6504
 70
192
 0
VERTEX
 8
SZE_CIAN_6
 10
0.2135
 20
0.2016
 30
0.6504
 70
192
 0
VERTEX
 8
SZE_CIAN_6
 10
0.2131
 20
0.202
 30
0.6504
 70
192
 0
VERTEX
 8
SZE_CIAN_6
 10
-0.1901
 20
0.202
 30
0.6504
 70
192
 0
VERTEX
 8
SZE_CIAN_6
 10
-0.1905
 20
0.2016
 30
0.6504
 70
192
 0
VERTEX
 8
SZE_CIAN_6
 10
-0.1905
 20
-0.2016
 30
0.6504
 70
192
 0
VERTEX
 8
SZE_CIAN_6
 10
-0.1901
 20
-0.202
 30
0.6656
 70
192
 0
VERTEX
 8
SZE_CIAN_6
 10
0.2131
 20
-0.202
 30
0.6656
 70
192
 0
VERTEX
 8
SZE_CIAN_6
 10
0.2135
 20
-0.2016
 30
0.6656
 70
192
 0
VERTEX
 8
SZE_CIAN_6
 10
0.2135
 20
0.2016
 30
0.6656
 70
192
 0
VERTEX
 8
SZE_CIAN_6
 10
0.2131
 20
0.202
 30
0.6656
 70
192
 0
VERTEX
 8
SZE_CIAN_6
 10
-0.1901
 20
0.202
 30
0.6656
 70
192
 0
VERTEX
 8
SZE_CIAN_6
 10
-0.1905
 20
0.2016
 30
0.6656
 70
192
 0
VERTEX
 8
SZE_CIAN_6
 10
-0.1905
 20
-0.2016
 30
0.6656
 70
192
 0
VERTEX
 8
SZE_CIAN_6
 10
-0.1901
 20
-0.2016
 30
0.666
 70
192
 0
VERTEX
 8
SZE_CIAN_6
 10
0.2131
 20
-0.2016
 30
0.666
 70
192
 0
VERTEX
 8
SZE_CIAN_6
 10
0.2131
 20
0.2016
 30
0.666
 70
192
 0
VERTEX
 8
SZE_CIAN_6
 10
-0.1901
 20
0.2016
 30
0.666
 70
192
 0
VERTEX
 8
SZE_CIAN_6
 10
0
 20
0
 30
0
 70
128
 71
1
 72
5
 73
6
 74
2
 0
VERTEX
 8
SZE_CIAN_6
 10
0
 20
0
 30
0
 70
128
 71
5
 72
13
 73
14
 74
6
 0
VERTEX
 8
SZE_CIAN_6
 10
0
 20
0
 30
0
 70
128
 71
13
 72
21
 73
22
 74
14
 0
VERTEX
 8
SZE_CIAN_6
 10
0
 20
0
 30
0
 70
128
 71
2
 72
6
 73
7
 74
7
 0
VERTEX
 8
SZE_CIAN_6
 10
0
 20
0
 30
0
 70
128
 71
6
 72
14
 73
15
 74
7
 0
VERTEX
 8
SZE_CIAN_6
 10
0
 20
0
 30
0
 70
128
 71
14
 72
22
 73
15
 74
15
 0
VERTEX
 8
SZE_CIAN_6
 10
0
 20
0
 30
0
 70
128
 71
2
 72
7
 73
8
 74
3
 0
VERTEX
 8
SZE_CIAN_6
 10
0
 20
0
 30
0
 70
128
 71
7
 72
15
 73
16
 74
8
 0
VERTEX
 8
SZE_CIAN_6
 10
0
 20
0
 30
0
 70
128
 71
15
 72
22
 73
23
 74
16
 0
VERTEX
 8
SZE_CIAN_6
 10
0
 20
0
 30
0
 70
128
 71
3
 72
8
 73
9
 74
9
 0
VERTEX
 8
SZE_CIAN_6
 10
0
 20
0
 30
0
 70
128
 71
8
 72
16
 73
17
 74
9
 0
VERTEX
 8
SZE_CIAN_6
 10
0
 20
0
 30
0
 70
128
 71
16
 72
23
 73
17
 74
17
 0
VERTEX
 8
SZE_CIAN_6
 10
0
 20
0
 30
0
 70
128
 71
3
 72
9
 73
10
 74
4
 0
VERTEX
 8
SZE_CIAN_6
 10
0
 20
0
 30
0
 70
128
 71
9
 72
17
 73
18
 74
10
 0
VERTEX
 8
SZE_CIAN_6
 10
0
 20
0
 30
0
 70
128
 71
17
 72
23
 73
24
 74
18
 0
VERTEX
 8
SZE_CIAN_6
 10
0
 20
0
 30
0
 70
128
 71
4
 72
10
 73
11
 74
11
 0
VERTEX
 8
SZE_CIAN_6
 10
0
 20
0
 30
0
 70
128
 71
10
 72
18
 73
19
 74
11
 0
VERTEX
 8
SZE_CIAN_6
 10
0
 20
0
 30
0
 70
128
 71
18
 72
24
 73
19
 74
19
 0
VERTEX
 8
SZE_CIAN_6
 10
0
 20
0
 30
0
 70
128
 71
4
 72
11
 73
12
 74
1
 0
VERTEX
 8
SZE_CIAN_6
 10
0
 20
0
 30
0
 70
128
 71
11
 72
19
 73
20
 74
12
 0
VERTEX
 8
SZE_CIAN_6
 10
0
 20
0
 30
0
 70
128
 71
19
 72
24
 73
21
 74
20
 0
VERTEX
 8
SZE_CIAN_6
 10
0
 20
0
 30
0
 70
128
 71
1
 72
12
 73
5
 74
5
 0
VERTEX
 8
SZE_CIAN_6
 10
0
 20
0
 30
0
 70
128
 71
12
 72
20
 73
13
 74
5
 0
VERTEX
 8
SZE_CIAN_6
 10
0
 20
0
 30
0
 70
128
 71
20
 72
21
 73
13
 74
13
 0
VERTEX
 8
SZE_CIAN_6
 10
0
 20
0
 30
0
 70
128
 71
21
 72
24
 73
23
 74
22
 0
VERTEX
 8
SZE_CIAN_6
 10
0
 20
0
 30
0
 70
128
 71
1
 72
2
 73
3
 74
4
 0
SEQEND
 0
POLYLINE
 8
SZE_CIAN_3
 66
1
 10
0.0
 20
0.0
 30
0.0
 70
64
 71
24
 72
26
 0
VERTEX
 8
SZE_CIAN_3
 10
0.1909
 20
-0.1981
 30
-0.133
 70
192
 0
VERTEX
 8
SZE_CIAN_3
 10
0.2061
 20
-0.1981
 30
-0.133
 70
192
 0
VERTEX
 8
SZE_CIAN_3
 10
0.2061
 20
0.1981
 30
-0.133
 70
192
 0
VERTEX
 8
SZE_CIAN_3
 10
0.1909
 20
0.1981
 30
-0.133
 70
192
 0
VERTEX
 8
SZE_CIAN_3
 10
0.1909
 20
-0.1985
 30
-0.1326
 70
192
 0
VERTEX
 8
SZE_CIAN_3
 10
0.2061
 20
-0.1985
 30
-0.1326
 70
192
 0
VERTEX
 8
SZE_CIAN_3
 10
0.2065
 20
-0.1981
 30
-0.1326
 70
192
 0
VERTEX
 8
SZE_CIAN_3
 10
0.2065
 20
0.1981
 30
-0.1326
 70
192
 0
VERTEX
 8
SZE_CIAN_3
 10
0.2061
 20
0.1985
 30
-0.1326
 70
192
 0
VERTEX
 8
SZE_CIAN_3
 10
0.1909
 20
0.1985
 30
-0.1326
 70
192
 0
VERTEX
 8
SZE_CIAN_3
 10
0.1905
 20
0.1981
 30
-0.1326
 70
192
 0
VERTEX
 8
SZE_CIAN_3
 10
0.1905
 20
-0.1981
 30
-0.1326
 70
192
 0
VERTEX
 8
SZE_CIAN_3
 10
0.1909
 20
-0.1985
 30
0.6476
 70
192
 0
VERTEX
 8
SZE_CIAN_3
 10
0.2061
 20
-0.1985
 30
0.6476
 70
192
 0
VERTEX
 8
SZE_CIAN_3
 10
0.2065
 20
-0.1981
 30
0.6476
 70
192
 0
VERTEX
 8
SZE_CIAN_3
 10
0.2065
 20
0.1981
 30
0.6476
 70
192
 0
VERTEX
 8
SZE_CIAN_3
 10
0.2061
 20
0.1985
 30
0.6476
 70
192
 0
VERTEX
 8
SZE_CIAN_3
 10
0.1909
 20
0.1985
 30
0.6476
 70
192
 0
VERTEX
 8
SZE_CIAN_3
 10
0.1905
 20
0.1981
 30
0.6476
 70
192
 0
VERTEX
 8
SZE_CIAN_3
 10
0.1905
 20
-0.1981
 30
0.6476
 70
192
 0
VERTEX
 8
SZE_CIAN_3
 10
0.1909
 20
-0.1981
 30
0.648
 70
192
 0
VERTEX
 8
SZE_CIAN_3
 10
0.2061
 20
-0.1981
 30
0.648
 70
192
 0
VERTEX
 8
SZE_CIAN_3
 10
0.2061
 20
0.1981
 30
0.648
 70
192
 0
VERTEX
 8
SZE_CIAN_3
 10
0.1909
 20
0.1981
 30
0.648
 70
192
 0
VERTEX
 8
SZE_CIAN_3
 10
0
 20
0
 30
0
 70
128
 71
1
 72
5
 73
6
 74
2
 0
VERTEX
 8
SZE_CIAN_3
 10
0
 20
0
 30
0
 70
128
 71
5
 72
13
 73
14
 74
6
 0
VERTEX
 8
SZE_CIAN_3
 10
0
 20
0
 30
0
 70
128
 71
13
 72
21
 73
22
 74
14
 0
VERTEX
 8
SZE_CIAN_3
 10
0
 20
0
 30
0
 70
128
 71
2
 72
6
 73
7
 74
7
 0
VERTEX
 8
SZE_CIAN_3
 10
0
 20
0
 30
0
 70
128
 71
6
 72
14
 73
15
 74
7
 0
VERTEX
 8
SZE_CIAN_3
 10
0
 20
0
 30
0
 70
128
 71
14
 72
22
 73
15
 74
15
 0
VERTEX
 8
SZE_CIAN_3
 10
0
 20
0
 30
0
 70
128
 71
2
 72
7
 73
8
 74
3
 0
VERTEX
 8
SZE_CIAN_3
 10
0
 20
0
 30
0
 70
128
 71
7
 72
15
 73
16
 74
8
 0
VERTEX
 8
SZE_CIAN_3
 10
0
 20
0
 30
0
 70
128
 71
15
 72
22
 73
23
 74
16
 0
VERTEX
 8
SZE_CIAN_3
 10
0
 20
0
 30
0
 70
128
 71
3
 72
8
 73
9
 74
9
 0
VERTEX
 8
SZE_CIAN_3
 10
0
 20
0
 30
0
 70
128
 71
8
 72
16
 73
17
 74
9
 0
VERTEX
 8
SZE_CIAN_3
 10
0
 20
0
 30
0
 70
128
 71
16
 72
23
 73
17
 74
17
 0
VERTEX
 8
SZE_CIAN_3
 10
0
 20
0
 30
0
 70
128
 71
3
 72
9
 73
10
 74
4
 0
VERTEX
 8
SZE_CIAN_3
 10
0
 20
0
 30
0
 70
128
 71
9
 72
17
 73
18
 74
10
 0
VERTEX
 8
SZE_CIAN_3
 10
0
 20
0
 30
0
 70
128
 71
17
 72
23
 73
24
 74
18
 0
VERTEX
 8
SZE_CIAN_3
 10
0
 20
0
 30
0
 70
128
 71
4
 72
10
 73
11
 74
11
 0
VERTEX
 8
SZE_CIAN_3
 10
0
 20
0
 30
0
 70
128
 71
10
 72
18
 73
19
 74
11
 0
VERTEX
 8
SZE_CIAN_3
 10
0
 20
0
 30
0
 70
128
 71
18
 72
24
 73
19
 74
19
 0
VERTEX
 8
SZE_CIAN_3
 10
0
 20
0
 30
0
 70
128
 71
4
 72
11
 73
12
 74
1
 0
VERTEX
 8
SZE_CIAN_3
 10
0
 20
0
 30
0
 70
128
 71
11
 72
19
 73
20
 74
12
 0
VERTEX
 8
SZE_CIAN_3
 10
0
 20
0
 30
0
 70
128
 71
19
 72
24
 73
21
 74
20
 0
VERTEX
 8
SZE_CIAN_3
 10
0
 20
0
 30
0
 70
128
 71
1
 72
12
 73
5
 74
5
 0
VERTEX
 8
SZE_CIAN_3
 10
0
 20
0
 30
0
 70
128
 71
12
 72
20
 73
13
 74
5
 0
VERTEX
 8
SZE_CIAN_3
 10
0
 20
0
 30
0
 70
128
 71
20
 72
21
 73
13
 74
13
 0
VERTEX
 8
SZE_CIAN_3
 10
0
 20
0
 30
0
 70
128
 71
21
 72
24
 73
23
 74
22
 0
VERTEX
 8
SZE_CIAN_3
 10
0
 20
0
 30
0
 70
128
 71
1
 72
2
 73
3
 74
4
 0
SEQEND
 0
POLYLINE
 8
SZE_CIAN_4
 66
1
 10
0.0
 20
0.0
 30
0.0
 70
64
 71
24
 72
26
 0
VERTEX
 8
SZE_CIAN_4
 10
0.1909
 20
-0.1981
 30
-0.65
 70
192
 0
VERTEX
 8
SZE_CIAN_4
 10
0.2061
 20
-0.1981
 30
-0.65
 70
192
 0
VERTEX
 8
SZE_CIAN_4
 10
0.2061
 20
0.1981
 30
-0.65
 70
192
 0
VERTEX
 8
SZE_CIAN_4
 10
0.1909
 20
0.1981
 30
-0.65
 70
192
 0
VERTEX
 8
SZE_CIAN_4
 10
0.1909
 20
-0.1985
 30
-0.6496
 70
192
 0
VERTEX
 8
SZE_CIAN_4
 10
0.2061
 20
-0.1985
 30
-0.6496
 70
192
 0
VERTEX
 8
SZE_CIAN_4
 10
0.2065
 20
-0.1981
 30
-0.6496
 70
192
 0
VERTEX
 8
SZE_CIAN_4
 10
0.2065
 20
0.1981
 30
-0.6496
 70
192
 0
VERTEX
 8
SZE_CIAN_4
 10
0.2061
 20
0.1985
 30
-0.6496
 70
192
 0
VERTEX
 8
SZE_CIAN_4
 10
0.1909
 20
0.1985
 30
-0.6496
 70
192
 0
VERTEX
 8
SZE_CIAN_4
 10
0.1905
 20
0.1981
 30
-0.6496
 70
192
 0
VERTEX
 8
SZE_CIAN_4
 10
0.1905
 20
-0.1981
 30
-0.6496
 70
192
 0
VERTEX
 8
SZE_CIAN_4
 10
0.1909
 20
-0.1985
 30
-0.1704
 70
192
 0
VERTEX
 8
SZE_CIAN_4
 10
0.2061
 20
-0.1985
 30
-0.1704
 70
192
 0
VERTEX
 8
SZE_CIAN_4
 10
0.2065
 20
-0.1981
 30
-0.1704
 70
192
 0
VERTEX
 8
SZE_CIAN_4
 10
0.2065
 20
0.1981
 30
-0.1704
 70
192
 0
VERTEX
 8
SZE_CIAN_4
 10
0.2061
 20
0.1985
 30
-0.1704
 70
192
 0
VERTEX
 8
SZE_CIAN_4
 10
0.1909
 20
0.1985
 30
-0.1704
 70
192
 0
VERTEX
 8
SZE_CIAN_4
 10
0.1905
 20
0.1981
 30
-0.1704
 70
192
 0
VERTEX
 8
SZE_CIAN_4
 10
0.1905
 20
-0.1981
 30
-0.1704
 70
192
 0
VERTEX
 8
SZE_CIAN_4
 10
0.1909
 20
-0.1981
 30
-0.17
 70
192
 0
VERTEX
 8
SZE_CIAN_4
 10
0.2061
 20
-0.1981
 30
-0.17
 70
192
 0
VERTEX
 8
SZE_CIAN_4
 10
0.2061
 20
0.1981
 30
-0.17
 70
192
 0
VERTEX
 8
SZE_CIAN_4
 10
0.1909
 20
0.1981
 30
-0.17
 70
192
 0
VERTEX
 8
SZE_CIAN_4
 10
0
 20
0
 30
0
 70
128
 71
1
 72
5
 73
6
 74
2
 0
VERTEX
 8
SZE_CIAN_4
 10
0
 20
0
 30
0
 70
128
 71
5
 72
13
 73
14
 74
6
 0
VERTEX
 8
SZE_CIAN_4
 10
0
 20
0
 30
0
 70
128
 71
13
 72
21
 73
22
 74
14
 0
VERTEX
 8
SZE_CIAN_4
 10
0
 20
0
 30
0
 70
128
 71
2
 72
6
 73
7
 74
7
 0
VERTEX
 8
SZE_CIAN_4
 10
0
 20
0
 30
0
 70
128
 71
6
 72
14
 73
15
 74
7
 0
VERTEX
 8
SZE_CIAN_4
 10
0
 20
0
 30
0
 70
128
 71
14
 72
22
 73
15
 74
15
 0
VERTEX
 8
SZE_CIAN_4
 10
0
 20
0
 30
0
 70
128
 71
2
 72
7
 73
8
 74
3
 0
VERTEX
 8
SZE_CIAN_4
 10
0
 20
0
 30
0
 70
128
 71
7
 72
15
 73
16
 74
8
 0
VERTEX
 8
SZE_CIAN_4
 10
0
 20
0
 30
0
 70
128
 71
15
 72
22
 73
23
 74
16
 0
VERTEX
 8
SZE_CIAN_4
 10
0
 20
0
 30
0
 70
128
 71
3
 72
8
 73
9
 74
9
 0
VERTEX
 8
SZE_CIAN_4
 10
0
 20
0
 30
0
 70
128
 71
8
 72
16
 73
17
 74
9
 0
VERTEX
 8
SZE_CIAN_4
 10
0
 20
0
 30
0
 70
128
 71
16
 72
23
 73
17
 74
17
 0
VERTEX
 8
SZE_CIAN_4
 10
0
 20
0
 30
0
 70
128
 71
3
 72
9
 73
10
 74
4
 0
VERTEX
 8
SZE_CIAN_4
 10
0
 20
0
 30
0
 70
128
 71
9
 72
17
 73
18
 74
10
 0
VERTEX
 8
SZE_CIAN_4
 10
0
 20
0
 30
0
 70
128
 71
17
 72
23
 73
24
 74
18
 0
VERTEX
 8
SZE_CIAN_4
 10
0
 20
0
 30
0
 70
128
 71
4
 72
10
 73
11
 74
11
 0
VERTEX
 8
SZE_CIAN_4
 10
0
 20
0
 30
0
 70
128
 71
10
 72
18
 73
19
 74
11
 0
VERTEX
 8
SZE_CIAN_4
 10
0
 20
0
 30
0
 70
128
 71
18
 72
24
 73
19
 74
19
 0
VERTEX
 8
SZE_CIAN_4
 10
0
 20
0
 30
0
 70
128
 71
4
 72
11
 73
12
 74
1
 0
VERTEX
 8
SZE_CIAN_4
 10
0
 20
0
 30
0
 70
128
 71
11
 72
19
 73
20
 74
12
 0
VERTEX
 8
SZE_CIAN_4
 10
0
 20
0
 30
0
 70
128
 71
19
 72
24
 73
21
 74
20
 0
VERTEX
 8
SZE_CIAN_4
 10
0
 20
0
 30
0
 70
128
 71
1
 72
12
 73
5
 74
5
 0
VERTEX
 8
SZE_CIAN_4
 10
0
 20
0
 30
0
 70
128
 71
12
 72
20
 73
13
 74
5
 0
VERTEX
 8
SZE_CIAN_4
 10
0
 20
0
 30
0
 70
128
 71
20
 72
21
 73
13
 74
13
 0
VERTEX
 8
SZE_CIAN_4
 10
0
 20
0
 30
0
 70
128
 71
21
 72
24
 73
23
 74
22
 0
VERTEX
 8
SZE_CIAN_4
 10
0
 20
0
 30
0
 70
128
 71
1
 72
2
 73
3
 74
4
 0
SEQEND
 0
POLYLINE
 8
SZE_CIAN_5
 66
1
 10
0.0
 20
0.0
 30
0.0
 70
64
 71
24
 72
26
 0
VERTEX
 8
SZE_CIAN_5
 10
0.1644
 20
-0.1848
 30
-0.2214
 70
192
 0
VERTEX
 8
SZE_CIAN_5
 10
0.1796
 20
-0.1848
 30
-0.2214
 70
192
 0
VERTEX
 8
SZE_CIAN_5
 10
0.1796
 20
0.1824
 30
-0.2214
 70
192
 0
VERTEX
 8
SZE_CIAN_5
 10
0.1644
 20
0.1824
 30
-0.2214
 70
192
 0
VERTEX
 8
SZE_CIAN_5
 10
0.1644
 20
-0.1852
 30
-0.221
 70
192
 0
VERTEX
 8
SZE_CIAN_5
 10
0.1796
 20
-0.1852
 30
-0.221
 70
192
 0
VERTEX
 8
SZE_CIAN_5
 10
0.18
 20
-0.1848
 30
-0.221
 70
192
 0
VERTEX
 8
SZE_CIAN_5
 10
0.18
 20
0.1824
 30
-0.221
 70
192
 0
VERTEX
 8
SZE_CIAN_5
 10
0.1796
 20
0.1828
 30
-0.221
 70
192
 0
VERTEX
 8
SZE_CIAN_5
 10
0.1644
 20
0.1828
 30
-0.221
 70
192
 0
VERTEX
 8
SZE_CIAN_5
 10
0.164
 20
0.1824
 30
-0.221
 70
192
 0
VERTEX
 8
SZE_CIAN_5
 10
0.164
 20
-0.1848
 30
-0.221
 70
192
 0
VERTEX
 8
SZE_CIAN_5
 10
0.1644
 20
-0.1852
 30
-0.1218
 70
192
 0
VERTEX
 8
SZE_CIAN_5
 10
0.1796
 20
-0.1852
 30
-0.1218
 70
192
 0
VERTEX
 8
SZE_CIAN_5
 10
0.18
 20
-0.1848
 30
-0.1218
 70
192
 0
VERTEX
 8
SZE_CIAN_5
 10
0.18
 20
0.1824
 30
-0.1218
 70
192
 0
VERTEX
 8
SZE_CIAN_5
 10
0.1796
 20
0.1828
 30
-0.1218
 70
192
 0
VERTEX
 8
SZE_CIAN_5
 10
0.1644
 20
0.1828
 30
-0.1218
 70
192
 0
VERTEX
 8
SZE_CIAN_5
 10
0.164
 20
0.1824
 30
-0.1218
 70
192
 0
VERTEX
 8
SZE_CIAN_5
 10
0.164
 20
-0.1848
 30
-0.1218
 70
192
 0
VERTEX
 8
SZE_CIAN_5
 10
0.1644
 20
-0.1848
 30
-0.1214
 70
192
 0
VERTEX
 8
SZE_CIAN_5
 10
0.1796
 20
-0.1848
 30
-0.1214
 70
192
 0
VERTEX
 8
SZE_CIAN_5
 10
0.1796
 20
0.1824
 30
-0.1214
 70
192
 0
VERTEX
 8
SZE_CIAN_5
 10
0.1644
 20
0.1824
 30
-0.1214
 70
192
 0
VERTEX
 8
SZE_CIAN_5
 10
0
 20
0
 30
0
 70
128
 71
1
 72
5
 73
6
 74
2
 0
VERTEX
 8
SZE_CIAN_5
 10
0
 20
0
 30
0
 70
128
 71
5
 72
13
 73
14
 74
6
 0
VERTEX
 8
SZE_CIAN_5
 10
0
 20
0
 30
0
 70
128
 71
13
 72
21
 73
22
 74
14
 0
VERTEX
 8
SZE_CIAN_5
 10
0
 20
0
 30
0
 70
128
 71
2
 72
6
 73
7
 74
7
 0
VERTEX
 8
SZE_CIAN_5
 10
0
 20
0
 30
0
 70
128
 71
6
 72
14
 73
15
 74
7
 0
VERTEX
 8
SZE_CIAN_5
 10
0
 20
0
 30
0
 70
128
 71
14
 72
22
 73
15
 74
15
 0
VERTEX
 8
SZE_CIAN_5
 10
0
 20
0
 30
0
 70
128
 71
2
 72
7
 73
8
 74
3
 0
VERTEX
 8
SZE_CIAN_5
 10
0
 20
0
 30
0
 70
128
 71
7
 72
15
 73
16
 74
8
 0
VERTEX
 8
SZE_CIAN_5
 10
0
 20
0
 30
0
 70
128
 71
15
 72
22
 73
23
 74
16
 0
VERTEX
 8
SZE_CIAN_5
 10
0
 20
0
 30
0
 70
128
 71
3
 72
8
 73
9
 74
9
 0
VERTEX
 8
SZE_CIAN_5
 10
0
 20
0
 30
0
 70
128
 71
8
 72
16
 73
17
 74
9
 0
VERTEX
 8
SZE_CIAN_5
 10
0
 20
0
 30
0
 70
128
 71
16
 72
23
 73
17
 74
17
 0
VERTEX
 8
SZE_CIAN_5
 10
0
 20
0
 30
0
 70
128
 71
3
 72
9
 73
10
 74
4
 0
VERTEX
 8
SZE_CIAN_5
 10
0
 20
0
 30
0
 70
128
 71
9
 72
17
 73
18
 74
10
 0
VERTEX
 8
SZE_CIAN_5
 10
0
 20
0
 30
0
 70
128
 71
17
 72
23
 73
24
 74
18
 0
VERTEX
 8
SZE_CIAN_5
 10
0
 20
0
 30
0
 70
128
 71
4
 72
10
 73
11
 74
11
 0
VERTEX
 8
SZE_CIAN_5
 10
0
 20
0
 30
0
 70
128
 71
10
 72
18
 73
19
 74
11
 0
VERTEX
 8
SZE_CIAN_5
 10
0
 20
0
 30
0
 70
128
 71
18
 72
24
 73
19
 74
19
 0
VERTEX
 8
SZE_CIAN_5
 10
0
 20
0
 30
0
 70
128
 71
4
 72
11
 73
12
 74
1
 0
VERTEX
 8
SZE_CIAN_5
 10
0
 20
0
 30
0
 70
128
 71
11
 72
19
 73
20
 74
12
 0
VERTEX
 8
SZE_CIAN_5
 10
0
 20
0
 30
0
 70
128
 71
19
 72
24
 73
21
 74
20
 0
VERTEX
 8
SZE_CIAN_5
 10
0
 20
0
 30
0
 70
128
 71
1
 72
12
 73
5
 74
5
 0
VERTEX
 8
SZE_CIAN_5
 10
0
 20
0
 30
0
 70
128
 71
12
 72
20
 73
13
 74
5
 0
VERTEX
 8
SZE_CIAN_5
 10
0
 20
0
 30
0
 70
128
 71
20
 72
21
 73
13
 74
13
 0
VERTEX
 8
SZE_CIAN_5
 10
0
 20
0
 30
0
 70
128
 71
21
 72
24
 73
23
 74
22
 0
VERTEX
 8
SZE_CIAN_5
 10
0
 20
0
 30
0
 70
128
 71
1
 72
2
 73
3
 74
4
 0
SEQEND
 0
POLYLINE
 8
SZE_CIAN_7
 66
1
 10
0.0
 20
0.0
 30
0.0
 70
64
 71
24
 72
26
 0
VERTEX
 8
SZE_CIAN_7
 10
-0.1724
 20
-0.1918
 30
-0.65
 70
192
 0
VERTEX
 8
SZE_CIAN_7
 10
-0.1702
 20
-0.1918
 30
-0.65
 70
192
 0
VERTEX
 8
SZE_CIAN_7
 10
-0.1702
 20
0.1894
 30
-0.65
 70
192
 0
VERTEX
 8
SZE_CIAN_7
 10
-0.1724
 20
0.1894
 30
-0.65
 70
192
 0
VERTEX
 8
SZE_CIAN_7
 10
-0.1724
 20
-0.1922
 30
-0.6496
 70
192
 0
VERTEX
 8
SZE_CIAN_7
 10
-0.1702
 20
-0.1922
 30
-0.6496
 70
192
 0
VERTEX
 8
SZE_CIAN_7
 10
-0.1698
 20
-0.1918
 30
-0.6496
 70
192
 0
VERTEX
 8
SZE_CIAN_7
 10
-0.1698
 20
0.1894
 30
-0.6496
 70
192
 0
VERTEX
 8
SZE_CIAN_7
 10
-0.1702
 20
0.1898
 30
-0.6496
 70
192
 0
VERTEX
 8
SZE_CIAN_7
 10
-0.1724
 20
0.1898
 30
-0.6496
 70
192
 0
VERTEX
 8
SZE_CIAN_7
 10
-0.1728
 20
0.1894
 30
-0.6496
 70
192
 0
VERTEX
 8
SZE_CIAN_7
 10
-0.1728
 20
-0.1918
 30
-0.6496
 70
192
 0
VERTEX
 8
SZE_CIAN_7
 10
-0.1724
 20
-0.1922
 30
0.6556
 70
192
 0
VERTEX
 8
SZE_CIAN_7
 10
-0.1702
 20
-0.1922
 30
0.6556
 70
192
 0
VERTEX
 8
SZE_CIAN_7
 10
-0.1698
 20
-0.1918
 30
0.6556
 70
192
 0
VERTEX
 8
SZE_CIAN_7
 10
-0.1698
 20
0.1894
 30
0.6556
 70
192
 0
VERTEX
 8
SZE_CIAN_7
 10
-0.1702
 20
0.1898
 30
0.6556
 70
192
 0
VERTEX
 8
SZE_CIAN_7
 10
-0.1724
 20
0.1898
 30
0.6556
 70
192
 0
VERTEX
 8
SZE_CIAN_7
 10
-0.1728
 20
0.1894
 30
0.6556
 70
192
 0
VERTEX
 8
SZE_CIAN_7
 10
-0.1728
 20
-0.1918
 30
0.6556
 70
192
 0
VERTEX
 8
SZE_CIAN_7
 10
-0.1724
 20
-0.1918
 30
0.656
 70
192
 0
VERTEX
 8
SZE_CIAN_7
 10
-0.1702
 20
-0.1918
 30
0.656
 70
192
 0
VERTEX
 8
SZE_CIAN_7
 10
-0.1702
 20
0.1894
 30
0.656
 70
192
 0
VERTEX
 8
SZE_CIAN_7
 10
-0.1724
 20
0.1894
 30
0.656
 70
192
 0
VERTEX
 8
SZE_CIAN_7
 10
0
 20
0
 30
0
 70
128
 71
1
 72
5
 73
6
 74
2
 0
VERTEX
 8
SZE_CIAN_7
 10
0
 20
0
 30
0
 70
128
 71
5
 72
13
 73
14
 74
6
 0
VERTEX
 8
SZE_CIAN_7
 10
0
 20
0
 30
0
 70
128
 71
13
 72
21
 73
22
 74
14
 0
VERTEX
 8
SZE_CIAN_7
 10
0
 20
0
 30
0
 70
128
 71
2
 72
6
 73
7
 74
7
 0
VERTEX
 8
SZE_CIAN_7
 10
0
 20
0
 30
0
 70
128
 71
6
 72
14
 73
15
 74
7
 0
VERTEX
 8
SZE_CIAN_7
 10
0
 20
0
 30
0
 70
128
 71
14
 72
22
 73
15
 74
15
 0
VERTEX
 8
SZE_CIAN_7
 10
0
 20
0
 30
0
 70
128
 71
2
 72
7
 73
8
 74
3
 0
VERTEX
 8
SZE_CIAN_7
 10
0
 20
0
 30
0
 70
128
 71
7
 72
15
 73
16
 74
8
 0
VERTEX
 8
SZE_CIAN_7
 10
0
 20
0
 30
0
 70
128
 71
15
 72
22
 73
23
 74
16
 0
VERTEX
 8
SZE_CIAN_7
 10
0
 20
0
 30
0
 70
128
 71
3
 72
8
 73
9
 74
9
 0
VERTEX
 8
SZE_CIAN_7
 10
0
 20
0
 30
0
 70
128
 71
8
 72
16
 73
17
 74
9
 0
VERTEX
 8
SZE_CIAN_7
 10
0
 20
0
 30
0
 70
128
 71
16
 72
23
 73
17
 74
17
 0
VERTEX
 8
SZE_CIAN_7
 10
0
 20
0
 30
0
 70
128
 71
3
 72
9
 73
10
 74
4
 0
VERTEX
 8
SZE_CIAN_7
 10
0
 20
0
 30
0
 70
128
 71
9
 72
17
 73
18
 74
10
 0
VERTEX
 8
SZE_CIAN_7
 10
0
 20
0
 30
0
 70
128
 71
17
 72
23
 73
24
 74
18
 0
VERTEX
 8
SZE_CIAN_7
 10
0
 20
0
 30
0
 70
128
 71
4
 72
10
 73
11
 74
11
 0
VERTEX
 8
SZE_CIAN_7
 10
0
 20
0
 30
0
 70
128
 71
10
 72
18
 73
19
 74
11
 0
VERTEX
 8
SZE_CIAN_7
 10
0
 20
0
 30
0
 70
128
 71
18
 72
24
 73
19
 74
19
 0
VERTEX
 8
SZE_CIAN_7
 10
0
 20
0
 30
0
 70
128
 71
4
 72
11
 73
12
 74
1
 0
VERTEX
 8
SZE_CIAN_7
 10
0
 20
0
 30
0
 70
128
 71
11
 72
19
 73
20
 74
12
 0
VERTEX
 8
SZE_CIAN_7
 10
0
 20
0
 30
0
 70
128
 71
19
 72
24
 73
21
 74
20
 0
VERTEX
 8
SZE_CIAN_7
 10
0
 20
0
 30
0
 70
128
 71
1
 72
12
 73
5
 74
5
 0
VERTEX
 8
SZE_CIAN_7
 10
0
 20
0
 30
0
 70
128
 71
12
 72
20
 73
13
 74
5
 0
VERTEX
 8
SZE_CIAN_7
 10
0
 20
0
 30
0
 70
128
 71
20
 72
21
 73
13
 74
13
 0
VERTEX
 8
SZE_CIAN_7
 10
0
 20
0
 30
0
 70
128
 71
21
 72
24
 73
23
 74
22
 0
VERTEX
 8
SZE_CIAN_7
 10
0
 20
0
 30
0
 70
128
 71
1
 72
2
 73
3
 74
4
 0
SEQEND
 0
POLYLINE
 8
SZE_CIAN_10
 66
1
 10
0.0
 20
0.0
 30
0.0
 70
64
 71
38
 72
43
 0
VERTEX
 8
SZE_CIAN_10
 10
-0.1896
 20
-0.2176
 30
-0.268
 70
192
 0
VERTEX
 8
SZE_CIAN_10
 10
-0.1104
 20
-0.2176
 30
-0.268
 70
192
 0
VERTEX
 8
SZE_CIAN_10
 10
-0.1104
 20
-0.2004
 30
-0.268
 70
192
 0
VERTEX
 8
SZE_CIAN_10
 10
-0.1896
 20
-0.2004
 30
-0.268
 70
192
 0
VERTEX
 8
SZE_CIAN_10
 10
-0.1896
 20
-0.218
 30
-0.2676
 70
192
 0
VERTEX
 8
SZE_CIAN_10
 10
-0.1101
 20
-0.218
 30
-0.2676
 70
192
 0
VERTEX
 8
SZE_CIAN_10
 10
-0.0498
 20
-0.2176
 30
-0.1684
 70
192
 0
VERTEX
 8
SZE_CIAN_10
 10
-0.1896
 20
-0.2004
 30
-0.168
 70
192
 0
VERTEX
 8
SZE_CIAN_10
 10
-0.1101
 20
-0.2
 30
-0.2676
 70
192
 0
VERTEX
 8
SZE_CIAN_10
 10
-0.1896
 20
-0.2
 30
-0.2676
 70
192
 0
VERTEX
 8
SZE_CIAN_10
 10
-0.19
 20
-0.2004
 30
-0.2676
 70
192
 0
VERTEX
 8
SZE_CIAN_10
 10
-0.19
 20
-0.2176
 30
-0.2676
 70
192
 0
VERTEX
 8
SZE_CIAN_10
 10
-0.1896
 20
-0.218
 30
-0.1684
 70
192
 0
VERTEX
 8
SZE_CIAN_10
 10
-0.0506
 20
-0.218
 30
-0.1688
 70
192
 0
VERTEX
 8
SZE_CIAN_10
 10
-0.1896
 20
-0.2176
 30
-0.168
 70
192
 0
VERTEX
 8
SZE_CIAN_10
 10
-0.051
 20
-0.218
 30
-0.1684
 70
192
 0
VERTEX
 8
SZE_CIAN_10
 10
-0.0506
 20
-0.2
 30
-0.1688
 70
192
 0
VERTEX
 8
SZE_CIAN_10
 10
-0.1896
 20
-0.2
 30
-0.1684
 70
192
 0
VERTEX
 8
SZE_CIAN_10
 10
-0.19
 20
-0.2004
 30
-0.1684
 70
192
 0
VERTEX
 8
SZE_CIAN_10
 10
-0.19
 20
-0.2176
 30
-0.1684
 70
192
 0
VERTEX
 8
SZE_CIAN_10
 10
0.1704
 20
-0.2176
 30
-0.968
 70
192
 0
VERTEX
 8
SZE_CIAN_10
 10
0.2096
 20
-0.2176
 30
-0.968
 70
192
 0
VERTEX
 8
SZE_CIAN_10
 10
0.2096
 20
-0.2004
 30
-0.968
 70
192
 0
VERTEX
 8
SZE_CIAN_10
 10
0.1704
 20
-0.2004
 30
-0.968
 70
192
 0
VERTEX
 8
SZE_CIAN_10
 10
0.1704
 20
-0.218
 30
-0.9676
 70
192
 0
VERTEX
 8
SZE_CIAN_10
 10
0.2096
 20
-0.218
 30
-0.9676
 70
192
 0
VERTEX
 8
SZE_CIAN_10
 10
0.21
 20
-0.2176
 30
-0.9676
 70
192
 0
VERTEX
 8
SZE_CIAN_10
 10
0.21
 20
-0.2004
 30
-0.9676
 70
192
 0
VERTEX
 8
SZE_CIAN_10
 10
0.2096
 20
-0.2
 30
-0.9676
 70
192
 0
VERTEX
 8
SZE_CIAN_10
 10
0.1704
 20
-0.2
 30
-0.9676
 70
192
 0
VERTEX
 8
SZE_CIAN_10
 10
0.17
 20
-0.2004
 30
-0.9676
 70
192
 0
VERTEX
 8
SZE_CIAN_10
 10
0.17
 20
-0.2176
 30
-0.9676
 70
192
 0
VERTEX
 8
SZE_CIAN_10
 10
-0.0498
 20
-0.2004
 30
-0.1684
 70
192
 0
VERTEX
 8
SZE_CIAN_10
 10
-0.0503
 20
-0.2
 30
-0.1689
 70
192
 0
VERTEX
 8
SZE_CIAN_10
 10
-0.0503
 20
-0.218
 30
-0.1689
 70
192
 0
VERTEX
 8
SZE_CIAN_10
 10
-0.051
 20
-0.2
 30
-0.1684
 70
192
 0
VERTEX
 8
SZE_CIAN_10
 10
-0.0504
 20
-0.2004
 30
-0.168
 70
192
 0
VERTEX
 8
SZE_CIAN_10
 10
-0.0504
 20
-0.2176
 30
-0.168
 70
192
 0
VERTEX
 8
SZE_CIAN_10
 10
0
 20
0
 30
0
 70
128
 71
1
 72
5
 73
6
 74
2
 0
VERTEX
 8
SZE_CIAN_10
 10
0
 20
0
 30
0
 70
128
 71
33
 72
34
 73
29
 74
28
 0
VERTEX
 8
SZE_CIAN_10
 10
0
 20
0
 30
0
 70
128
 71
36
 72
37
 73
8
 74
18
 0
VERTEX
 8
SZE_CIAN_10
 10
0
 20
0
 30
0
 70
128
 71
19
 72
8
 73
15
 74
20
 0
VERTEX
 8
SZE_CIAN_10
 10
0
 20
0
 30
0
 70
128
 71
15
 72
8
 73
37
 74
38
 0
VERTEX
 8
SZE_CIAN_10
 10
0
 20
0
 30
0
 70
128
 71
19
 72
8
 73
18
 74
18
 0
VERTEX
 8
SZE_CIAN_10
 10
0
 20
0
 30
0
 70
128
 71
1
 72
12
 73
5
 74
5
 0
VERTEX
 8
SZE_CIAN_10
 10
0
 20
0
 30
0
 70
128
 71
1
 72
2
 73
3
 74
4
 0
VERTEX
 8
SZE_CIAN_10
 10
0
 20
0
 30
0
 70
128
 71
4
 72
11
 73
12
 74
1
 0
VERTEX
 8
SZE_CIAN_10
 10
0
 20
0
 30
0
 70
128
 71
12
 72
20
 73
13
 74
5
 0
VERTEX
 8
SZE_CIAN_10
 10
0
 20
0
 30
0
 70
128
 71
20
 72
15
 73
13
 74
13
 0
VERTEX
 8
SZE_CIAN_10
 10
0
 20
0
 30
0
 70
128
 71
11
 72
19
 73
20
 74
12
 0
VERTEX
 8
SZE_CIAN_10
 10
0
 20
0
 30
0
 70
128
 71
3
 72
9
 73
10
 74
4
 0
VERTEX
 8
SZE_CIAN_10
 10
0
 20
0
 30
0
 70
128
 71
35
 72
7
 73
27
 74
26
 0
VERTEX
 8
SZE_CIAN_10
 10
0
 20
0
 30
0
 70
128
 71
26
 72
25
 73
6
 74
35
 0
VERTEX
 8
SZE_CIAN_10
 10
0
 20
0
 30
0
 70
128
 71
4
 72
10
 73
11
 74
11
 0
VERTEX
 8
SZE_CIAN_10
 10
0
 20
0
 30
0
 70
128
 71
10
 72
18
 73
19
 74
11
 0
VERTEX
 8
SZE_CIAN_10
 10
0
 20
0
 30
0
 70
128
 71
21
 72
25
 73
26
 74
22
 0
VERTEX
 8
SZE_CIAN_10
 10
0
 20
0
 30
0
 70
128
 71
29
 72
28
 73
23
 74
23
 0
VERTEX
 8
SZE_CIAN_10
 10
0
 20
0
 30
0
 70
128
 71
23
 72
29
 73
30
 74
24
 0
VERTEX
 8
SZE_CIAN_10
 10
0
 20
0
 30
0
 70
128
 71
22
 72
26
 73
27
 74
27
 0
VERTEX
 8
SZE_CIAN_10
 10
0
 20
0
 30
0
 70
128
 71
24
 72
30
 73
31
 74
31
 0
VERTEX
 8
SZE_CIAN_10
 10
0
 20
0
 30
0
 70
128
 71
24
 72
31
 73
32
 74
21
 0
VERTEX
 8
SZE_CIAN_10
 10
0
 20
0
 30
0
 70
128
 71
22
 72
27
 73
28
 74
23
 0
VERTEX
 8
SZE_CIAN_10
 10
0
 20
0
 30
0
 70
128
 71
21
 72
32
 73
25
 74
25
 0
VERTEX
 8
SZE_CIAN_10
 10
0
 20
0
 30
0
 70
128
 71
21
 72
22
 73
23
 74
24
 0
VERTEX
 8
SZE_CIAN_10
 10
0
 20
0
 30
0
 70
128
 71
6
 72
14
 73
35
 74
35
 0
VERTEX
 8
SZE_CIAN_10
 10
0
 20
0
 30
0
 70
128
 71
13
 72
15
 73
38
 74
16
 0
VERTEX
 8
SZE_CIAN_10
 10
0
 20
0
 30
0
 70
128
 71
16
 72
14
 73
6
 74
6
 0
VERTEX
 8
SZE_CIAN_10
 10
0
 20
0
 30
0
 70
128
 71
6
 72
5
 73
13
 74
16
 0
VERTEX
 8
SZE_CIAN_10
 10
0
 20
0
 30
0
 70
128
 71
34
 72
17
 73
9
 74
9
 0
VERTEX
 8
SZE_CIAN_10
 10
0
 20
0
 30
0
 70
128
 71
2
 72
6
 73
25
 74
21
 0
VERTEX
 8
SZE_CIAN_10
 10
0
 20
0
 30
0
 70
128
 71
3
 72
9
 73
30
 74
24
 0
VERTEX
 8
SZE_CIAN_10
 10
0
 20
0
 30
0
 70
128
 71
3
 72
2
 73
32
 74
31
 0
VERTEX
 8
SZE_CIAN_10
 10
0
 20
0
 30
0
 70
128
 71
9
 72
30
 73
29
 74
34
 0
VERTEX
 8
SZE_CIAN_10
 10
0
 20
0
 30
0
 70
128
 71
9
 72
36
 73
18
 74
10
 0
VERTEX
 8
SZE_CIAN_10
 10
0
 20
0
 30
0
 70
128
 71
9
 72
17
 73
36
 74
36
 0
VERTEX
 8
SZE_CIAN_10
 10
0
 20
0
 30
0
 70
128
 71
38
 72
7
 73
35
 74
16
 0
VERTEX
 8
SZE_CIAN_10
 10
0
 20
0
 30
0
 70
128
 71
33
 72
28
 73
27
 74
7
 0
VERTEX
 8
SZE_CIAN_10
 10
0
 20
0
 30
0
 70
128
 71
37
 72
33
 73
7
 74
38
 0
VERTEX
 8
SZE_CIAN_10
 10
0
 20
0
 30
0
 70
128
 71
34
 72
17
 73
36
 74
36
 0
VERTEX
 8
SZE_CIAN_10
 10
0
 20
0
 30
0
 70
128
 71
35
 72
14
 73
16
 74
16
 0
VERTEX
 8
SZE_CIAN_10
 10
0
 20
0
 30
0
 70
128
 71
36
 72
34
 73
33
 74
37
 0
SEQEND
 0
POLYLINE
 8
SZE_CIAN_8
 66
1
 10
0.0
 20
0.0
 30
0.0
 70
64
 71
38
 72
43
 0
VERTEX
 8
SZE_CIAN_8
 10
-0.1896
 20
0.2004
 30
-0.268
 70
192
 0
VERTEX
 8
SZE_CIAN_8
 10
-0.1104
 20
0.2004
 30
-0.268
 70
192
 0
VERTEX
 8
SZE_CIAN_8
 10
-0.1104
 20
0.2176
 30
-0.268
 70
192
 0
VERTEX
 8
SZE_CIAN_8
 10
-0.1896
 20
0.2176
 30
-0.268
 70
192
 0
VERTEX
 8
SZE_CIAN_8
 10
-0.1896
 20
0.2
 30
-0.2676
 70
192
 0
VERTEX
 8
SZE_CIAN_8
 10
-0.1101
 20
0.2
 30
-0.2676
 70
192
 0
VERTEX
 8
SZE_CIAN_8
 10
-0.0498
 20
0.2004
 30
-0.1684
 70
192
 0
VERTEX
 8
SZE_CIAN_8
 10
-0.1896
 20
0.2176
 30
-0.168
 70
192
 0
VERTEX
 8
SZE_CIAN_8
 10
-0.1101
 20
0.218
 30
-0.2676
 70
192
 0
VERTEX
 8
SZE_CIAN_8
 10
-0.1896
 20
0.218
 30
-0.2676
 70
192
 0
VERTEX
 8
SZE_CIAN_8
 10
-0.19
 20
0.2176
 30
-0.2676
 70
192
 0
VERTEX
 8
SZE_CIAN_8
 10
-0.19
 20
0.2004
 30
-0.2676
 70
192
 0
VERTEX
 8
SZE_CIAN_8
 10
-0.1896
 20
0.2
 30
-0.1684
 70
192
 0
VERTEX
 8
SZE_CIAN_8
 10
-0.0506
 20
0.2
 30
-0.1688
 70
192
 0
VERTEX
 8
SZE_CIAN_8
 10
-0.1896
 20
0.2004
 30
-0.168
 70
192
 0
VERTEX
 8
SZE_CIAN_8
 10
-0.051
 20
0.2
 30
-0.1684
 70
192
 0
VERTEX
 8
SZE_CIAN_8
 10
-0.0506
 20
0.218
 30
-0.1688
 70
192
 0
VERTEX
 8
SZE_CIAN_8
 10
-0.1896
 20
0.218
 30
-0.1684
 70
192
 0
VERTEX
 8
SZE_CIAN_8
 10
-0.19
 20
0.2176
 30
-0.1684
 70
192
 0
VERTEX
 8
SZE_CIAN_8
 10
-0.19
 20
0.2004
 30
-0.1684
 70
192
 0
VERTEX
 8
SZE_CIAN_8
 10
0.1704
 20
0.2004
 30
-0.968
 70
192
 0
VERTEX
 8
SZE_CIAN_8
 10
0.2096
 20
0.2004
 30
-0.968
 70
192
 0
VERTEX
 8
SZE_CIAN_8
 10
0.2096
 20
0.2176
 30
-0.968
 70
192
 0
VERTEX
 8
SZE_CIAN_8
 10
0.1704
 20
0.2176
 30
-0.968
 70
192
 0
VERTEX
 8
SZE_CIAN_8
 10
0.1704
 20
0.2
 30
-0.9676
 70
192
 0
VERTEX
 8
SZE_CIAN_8
 10
0.2096
 20
0.2
 30
-0.9676
 70
192
 0
VERTEX
 8
SZE_CIAN_8
 10
0.21
 20
0.2004
 30
-0.9676
 70
192
 0
VERTEX
 8
SZE_CIAN_8
 10
0.21
 20
0.2176
 30
-0.9676
 70
192
 0
VERTEX
 8
SZE_CIAN_8
 10
0.2096
 20
0.218
 30
-0.9676
 70
192
 0
VERTEX
 8
SZE_CIAN_8
 10
0.1704
 20
0.218
 30
-0.9676
 70
192
 0
VERTEX
 8
SZE_CIAN_8
 10
0.17
 20
0.2176
 30
-0.9676
 70
192
 0
VERTEX
 8
SZE_CIAN_8
 10
0.17
 20
0.2004
 30
-0.9676
 70
192
 0
VERTEX
 8
SZE_CIAN_8
 10
-0.0498
 20
0.2176
 30
-0.1684
 70
192
 0
VERTEX
 8
SZE_CIAN_8
 10
-0.0503
 20
0.218
 30
-0.1689
 70
192
 0
VERTEX
 8
SZE_CIAN_8
 10
-0.0503
 20
0.2
 30
-0.1689
 70
192
 0
VERTEX
 8
SZE_CIAN_8
 10
-0.051
 20
0.218
 30
-0.1684
 70
192
 0
VERTEX
 8
SZE_CIAN_8
 10
-0.0504
 20
0.2176
 30
-0.168
 70
192
 0
VERTEX
 8
SZE_CIAN_8
 10
-0.0504
 20
0.2004
 30
-0.168
 70
192
 0
VERTEX
 8
SZE_CIAN_8
 10
0
 20
0
 30
0
 70
128
 71
1
 72
5
 73
6
 74
2
 0
VERTEX
 8
SZE_CIAN_8
 10
0
 20
0
 30
0
 70
128
 71
33
 72
34
 73
29
 74
28
 0
VERTEX
 8
SZE_CIAN_8
 10
0
 20
0
 30
0
 70
128
 71
36
 72
37
 73
8
 74
18
 0
VERTEX
 8
SZE_CIAN_8
 10
0
 20
0
 30
0
 70
128
 71
19
 72
8
 73
15
 74
20
 0
VERTEX
 8
SZE_CIAN_8
 10
0
 20
0
 30
0
 70
128
 71
15
 72
8
 73
37
 74
38
 0
VERTEX
 8
SZE_CIAN_8
 10
0
 20
0
 30
0
 70
128
 71
19
 72
8
 73
18
 74
18
 0
VERTEX
 8
SZE_CIAN_8
 10
0
 20
0
 30
0
 70
128
 71
1
 72
12
 73
5
 74
5
 0
VERTEX
 8
SZE_CIAN_8
 10
0
 20
0
 30
0
 70
128
 71
1
 72
2
 73
3
 74
4
 0
VERTEX
 8
SZE_CIAN_8
 10
0
 20
0
 30
0
 70
128
 71
4
 72
11
 73
12
 74
1
 0
VERTEX
 8
SZE_CIAN_8
 10
0
 20
0
 30
0
 70
128
 71
12
 72
20
 73
13
 74
5
 0
VERTEX
 8
SZE_CIAN_8
 10
0
 20
0
 30
0
 70
128
 71
20
 72
15
 73
13
 74
13
 0
VERTEX
 8
SZE_CIAN_8
 10
0
 20
0
 30
0
 70
128
 71
11
 72
19
 73
20
 74
12
 0
VERTEX
 8
SZE_CIAN_8
 10
0
 20
0
 30
0
 70
128
 71
3
 72
9
 73
10
 74
4
 0
VERTEX
 8
SZE_CIAN_8
 10
0
 20
0
 30
0
 70
128
 71
35
 72
7
 73
27
 74
26
 0
VERTEX
 8
SZE_CIAN_8
 10
0
 20
0
 30
0
 70
128
 71
26
 72
25
 73
6
 74
35
 0
VERTEX
 8
SZE_CIAN_8
 10
0
 20
0
 30
0
 70
128
 71
4
 72
10
 73
11
 74
11
 0
VERTEX
 8
SZE_CIAN_8
 10
0
 20
0
 30
0
 70
128
 71
10
 72
18
 73
19
 74
11
 0
VERTEX
 8
SZE_CIAN_8
 10
0
 20
0
 30
0
 70
128
 71
21
 72
25
 73
26
 74
22
 0
VERTEX
 8
SZE_CIAN_8
 10
0
 20
0
 30
0
 70
128
 71
29
 72
28
 73
23
 74
23
 0
VERTEX
 8
SZE_CIAN_8
 10
0
 20
0
 30
0
 70
128
 71
23
 72
29
 73
30
 74
24
 0
VERTEX
 8
SZE_CIAN_8
 10
0
 20
0
 30
0
 70
128
 71
22
 72
26
 73
27
 74
27
 0
VERTEX
 8
SZE_CIAN_8
 10
0
 20
0
 30
0
 70
128
 71
24
 72
30
 73
31
 74
31
 0
VERTEX
 8
SZE_CIAN_8
 10
0
 20
0
 30
0
 70
128
 71
24
 72
31
 73
32
 74
21
 0
VERTEX
 8
SZE_CIAN_8
 10
0
 20
0
 30
0
 70
128
 71
22
 72
27
 73
28
 74
23
 0
VERTEX
 8
SZE_CIAN_8
 10
0
 20
0
 30
0
 70
128
 71
21
 72
32
 73
25
 74
25
 0
VERTEX
 8
SZE_CIAN_8
 10
0
 20
0
 30
0
 70
128
 71
21
 72
22
 73
23
 74
24
 0
VERTEX
 8
SZE_CIAN_8
 10
0
 20
0
 30
0
 70
128
 71
6
 72
14
 73
35
 74
35
 0
VERTEX
 8
SZE_CIAN_8
 10
0
 20
0
 30
0
 70
128
 71
13
 72
15
 73
38
 74
16
 0
VERTEX
 8
SZE_CIAN_8
 10
0
 20
0
 30
0
 70
128
 71
16
 72
14
 73
6
 74
6
 0
VERTEX
 8
SZE_CIAN_8
 10
0
 20
0
 30
0
 70
128
 71
6
 72
5
 73
13
 74
16
 0
VERTEX
 8
SZE_CIAN_8
 10
0
 20
0
 30
0
 70
128
 71
34
 72
17
 73
9
 74
9
 0
VERTEX
 8
SZE_CIAN_8
 10
0
 20
0
 30
0
 70
128
 71
2
 72
6
 73
25
 74
21
 0
VERTEX
 8
SZE_CIAN_8
 10
0
 20
0
 30
0
 70
128
 71
3
 72
9
 73
30
 74
24
 0
VERTEX
 8
SZE_CIAN_8
 10
0
 20
0
 30
0
 70
128
 71
3
 72
2
 73
32
 74
31
 0
VERTEX
 8
SZE_CIAN_8
 10
0
 20
0
 30
0
 70
128
 71
9
 72
30
 73
29
 74
34
 0
VERTEX
 8
SZE_CIAN_8
 10
0
 20
0
 30
0
 70
128
 71
9
 72
36
 73
18
 74
10
 0
VERTEX
 8
SZE_CIAN_8
 10
0
 20
0
 30
0
 70
128
 71
9
 72
17
 73
36
 74
36
 0
VERTEX
 8
SZE_CIAN_8
 10
0
 20
0
 30
0
 70
128
 71
38
 72
7
 73
35
 74
16
 0
VERTEX
 8
SZE_CIAN_8
 10
0
 20
0
 30
0
 70
128
 71
33
 72
28
 73
27
 74
7
 0
VERTEX
 8
SZE_CIAN_8
 10
0
 20
0
 30
0
 70
128
 71
37
 72
33
 73
7
 74
38
 0
VERTEX
 8
SZE_CIAN_8
 10
0
 20
0
 30
0
 70
128
 71
34
 72
17
 73
36
 74
36
 0
VERTEX
 8
SZE_CIAN_8
 10
0
 20
0
 30
0
 70
128
 71
35
 72
14
 73
16
 74
16
 0
VERTEX
 8
SZE_CIAN_8
 10
0
 20
0
 30
0
 70
128
 71
36
 72
34
 73
33
 74
37
 0
SEQEND
 0
ENDSEC
 0
EOF
