  0
SECTION
  2
HEADER
  9
$ACADVER
  1
AC1009
  9
$INSBASE
 10
   0.0000
 20
 830.0000
 30
    0.0
  9
$EXTMIN
 10
-136.2320
 20
-132.5000
 30
   0.0000
  9
$EXTMAX
 10
1362.3200
 20
 830.0000
 30
   0.0000
  9
$REGENMODE
 70
1
  9
$LTSCALE
 40
1.00
  9
$PSLTSCALE
 70
1
  0
ENDSEC
  0
SECTION
  2
TABLES
  0
TABLE
  2
LTYPE
 70
  5
  0
LTYPE
  2
AUSGEZOGEN
 70
 64
  3
AUSGEZOGEN
 72
 65
 73
  0
 40
0.0
  0
LTYPE
  2
PUNKTIERT
 70
 64
  3
Gepunktet
 72
 65
 73
  2
 40
30.0000
 49
0.0
 49
-30.0000
  0
LTYPE
  2
GESTRICHELT
 70
 64
  3
Strichliert
 72
 65
 73
  2
 40
80.0000
 49
50.0000
 49
-30.0000
  0
LTYPE
  2
STRICHPUNKT
 70
 64
  3
Strichpunktet
 72
 65
 73
  4
 40
160.0000
 49
100.0000
 49
-30.0000
 49
0.0
 49
-30.0000
  0
LTYPE
  2
GETRENNT
 70
 64
  3
Strichpunktpunktet
 72
 65
 73
  6
 40
190.0000
 49
100.0000
 49
-30.0000
 49
0.0
 49
-30.0000
 49
0.0
 49
-30.0000
  0
ENDTAB
  0
TABLE
  2
LAYER
 70
5
  0
LAYER
  2
550
 70
  0
 62
  2
  6
AUSGEZOGEN
  0
LAYER
  2
510
 70
  0
 62
  2
  6
AUSGEZOGEN
  0
LAYER
  2
0
 70
  0
 62
  1
  6
AUSGEZOGEN
  0
LAYER
  2
200
 70
  0
 62
  7
  6
AUSGEZOGEN
  0
LAYER
  2
400
 70
  0
 62
  4
  6
AUSGEZOGEN
  0
ENDTAB
  0
TABLE
  2
STYLE
 70
  1
  0
STYLE
  2
STANDARD
 70
 64
 40
0.0
 41
1.0
 50
0.0
 71
  0
 42
30.0
  3
TXT.SHX
  4

  0
ENDTAB
  0
ENDSEC
  0
SECTION
  2
ENTITIES
  0
LINE
  8
400
  6
AUSGEZOGEN
 10
 300.0000
 20
 300.0000
 11
 736.5000
 21
 696.5000
  0
LINE
  8
400
  6
AUSGEZOGEN
 10
1362.3200
 20
 696.5000
 11
 736.5000
 21
 696.5000
  0
CIRCLE
  8
400
  6
AUSGEZOGEN
 10
 300.0000
 20
 300.0000
 40
  50.0000
  0
LINE
  8
400
  6
AUSGEZOGEN
 10
 225.0000
 20
 300.0000
 11
 300.0000
 21
 300.0000
  0
LINE
  8
400
  6
AUSGEZOGEN
 10
 375.0000
 20
 300.0000
 11
 300.0000
 21
 300.0000
  0
LINE
  8
400
  6
AUSGEZOGEN
 10
 300.0000
 20
 225.0000
 11
 300.0000
 21
 300.0000
  0
LINE
  8
400
  6
AUSGEZOGEN
 10
 300.0000
 20
 375.0000
 11
 300.0000
 21
 300.0000
  0
LINE
  8
200
  6
AUSGEZOGEN
 10
 310.0000
 20
 812.6000
 11
 310.0000
 21
 807.4000
  0
LINE
  8
200
  6
AUSGEZOGEN
 10
 307.4000
 20
 802.6000
 11
 310.0000
 21
 807.4000
  0
LINE
  8
200
  6
AUSGEZOGEN
 10
 302.6000
 20
 800.0000
 11
 307.4000
 21
 802.6000
  0
LINE
  8
200
  6
AUSGEZOGEN
 10
 297.4000
 20
 800.0000
 11
 302.6000
 21
 800.0000
  0
LINE
  8
200
  6
AUSGEZOGEN
 10
 292.6000
 20
 802.6000
 11
 297.4000
 21
 800.0000
  0
LINE
  8
200
  6
AUSGEZOGEN
 10
 290.0000
 20
 807.4000
 11
 292.6000
 21
 802.6000
  0
LINE
  8
200
  6
AUSGEZOGEN
 10
 292.6000
 20
 817.4000
 11
 290.0000
 21
 812.6000
  0
LINE
  8
200
  6
AUSGEZOGEN
 10
 297.4000
 20
 820.0000
 11
 292.6000
 21
 817.4000
  0
LINE
  8
200
  6
AUSGEZOGEN
 10
 307.4000
 20
 817.4000
 11
 302.6000
 21
 820.0000
  0
LINE
  8
200
  6
AUSGEZOGEN
 10
 310.0000
 20
 812.6000
 11
 307.4000
 21
 817.4000
  0
LINE
  8
200
  6
AUSGEZOGEN
 10
 290.0000
 20
 807.4000
 11
 290.0000
 21
 812.6000
  0
LINE
  8
200
  6
AUSGEZOGEN
 10
 302.6000
 20
 820.0000
 11
 297.4000
 21
 820.0000
  0
LINE
  8
200
  6
AUSGEZOGEN
 10
  53.0000
 20
 800.0000
 11
 117.0000
 21
 800.0000
  0
LINE
  8
200
  6
AUSGEZOGEN
 10
  50.0000
 20
 817.0000
 11
  50.0000
 21
 803.0000
  0
LINE
  8
200
  6
AUSGEZOGEN
 10
  53.0000
 20
 820.0000
 11
  50.0000
 21
 817.0000
  0
LINE
  8
200
  6
AUSGEZOGEN
 10
 117.0000
 20
 820.0000
 11
  53.0000
 21
 820.0000
  0
LINE
  8
200
  6
AUSGEZOGEN
 10
 120.0000
 20
 817.0000
 11
 117.0000
 21
 820.0000
  0
LINE
  8
200
  6
AUSGEZOGEN
 10
 120.0000
 20
 803.0000
 11
 120.0000
 21
 817.0000
  0
LINE
  8
200
  6
AUSGEZOGEN
 10
 117.0000
 20
 800.0000
 11
 120.0000
 21
 803.0000
  0
LINE
  8
200
  6
AUSGEZOGEN
 10
  50.0000
 20
 803.0000
 11
  53.0000
 21
 800.0000
  0
LINE
  8
200
  6
AUSGEZOGEN
 10
 118.0000
 20
 816.0000
 11
 116.0000
 21
 818.0000
  0
LINE
  8
200
  6
AUSGEZOGEN
 10
 116.0000
 20
 802.0000
 11
 118.0000
 21
 804.0000
  0
LINE
  8
200
  6
AUSGEZOGEN
 10
  52.0000
 20
 804.0000
 11
  54.0000
 21
 802.0000
  0
LINE
  8
200
  6
AUSGEZOGEN
 10
  54.0000
 20
 818.0000
 11
  52.0000
 21
 816.0000
  0
LINE
  8
200
  6
AUSGEZOGEN
 10
 116.0000
 20
 818.0000
 11
  54.0000
 21
 818.0000
  0
LINE
  8
200
  6
AUSGEZOGEN
 10
  54.0000
 20
 802.0000
 11
 116.0000
 21
 802.0000
  0
LINE
  8
200
  6
AUSGEZOGEN
 10
  52.0000
 20
 816.0000
 11
  52.0000
 21
 804.0000
  0
LINE
  8
200
  6
AUSGEZOGEN
 10
 118.0000
 20
 804.0000
 11
 118.0000
 21
 816.0000
  0
LINE
  8
200
  6
AUSGEZOGEN
 10
 104.0000
 20
 816.0000
 11
 110.0000
 21
 816.0000
  0
LINE
  8
200
  6
AUSGEZOGEN
 10
 104.0000
 20
 804.0000
 11
 104.0000
 21
 816.0000
  0
LINE
  8
200
  6
AUSGEZOGEN
 10
 110.0000
 20
 816.0000
 11
 110.0000
 21
 804.0000
  0
LINE
  8
200
  6
AUSGEZOGEN
 10
 104.0000
 20
 804.0000
 11
 110.0000
 21
 804.0000
  0
LINE
  8
200
  6
AUSGEZOGEN
 10
 110.0000
 20
 810.0200
 11
 104.0000
 21
 810.0200
  0
LINE
  8
200
  6
AUSGEZOGEN
 10
   0.0000
 20
 680.0000
 11
  10.0000
 21
 680.0000
  0
LINE
  8
200
  6
AUSGEZOGEN
 10
  10.0000
 20
 660.0000
 11
   0.0000
 21
 660.0000
  0
LINE
  8
200
  6
AUSGEZOGEN
 10
  17.0000
 20
 680.0000
 11
  17.0000
 21
 660.0000
  0
LINE
  8
200
  6
AUSGEZOGEN
 10
   0.0000
 20
 480.0000
 11
  10.0000
 21
 480.0000
  0
LINE
  8
200
  6
AUSGEZOGEN
 10
  17.0000
 20
 500.0000
 11
  17.0000
 21
 480.0000
  0
LINE
  8
200
  6
AUSGEZOGEN
 10
  10.0000
 20
 730.0000
 11
  10.0000
 21
 430.0000
  0
LINE
  8
200
  6
AUSGEZOGEN
 10
  30.0000
 20
 430.0000
 11
  30.0000
 21
 730.0000
  0
LINE
  8
200
  6
AUSGEZOGEN
 10
  10.0000
 20
 430.0000
 11
  30.0000
 21
 430.0000
  0
LINE
  8
200
  6
AUSGEZOGEN
 10
  30.0000
 20
 730.0000
 11
  10.0000
 21
 730.0000
  0
LINE
  8
200
  6
AUSGEZOGEN
 10
   0.0000
 20
 500.0000
 11
  10.0000
 21
 500.0000
  0
LINE
  8
200
  6
AUSGEZOGEN
 10
 595.0000
 20
  80.0000
 11
   5.0000
 21
  80.0000
  0
LINE
  8
200
  6
AUSGEZOGEN
 10
   5.0000
 20
 480.0000
 11
   5.0000
 21
  80.0000
  0
LINE
  8
200
  6
AUSGEZOGEN
 10
   5.0000
 20
 660.0000
 11
   5.0000
 21
 500.0000
  0
LINE
  8
200
  6
AUSGEZOGEN
 10
   5.0000
 20
 780.0000
 11
   5.0000
 21
 680.0000
  0
LINE
  8
200
  6
AUSGEZOGEN
 10
 595.0000
 20
 780.0000
 11
   5.0000
 21
 780.0000
  0
LINE
  8
200
  6
AUSGEZOGEN
 10
 595.0000
 20
  80.0000
 11
 595.0000
 21
 780.0000
  0
LINE
  8
200
  6
AUSGEZOGEN
 10
   0.0000
 20
 830.0000
 11
 600.0000
 21
 830.0000
  0
LINE
  8
200
  6
AUSGEZOGEN
 10
 600.0000
 20
 790.0000
 11
   0.0000
 21
 790.0000
  0
LINE
  8
200
  6
AUSGEZOGEN
 10
 550.0000
 20
   0.0000
 11
 580.0000
 21
   0.0000
  0
LINE
  8
200
  6
AUSGEZOGEN
 10
 580.0000
 20
  20.0000
 11
 550.0000
 21
  20.0000
  0
LINE
  8
200
  6
AUSGEZOGEN
 10
 550.0000
 20
   0.0000
 11
 550.0000
 21
  20.0000
  0
LINE
  8
200
  6
AUSGEZOGEN
 10
 580.0000
 20
  20.0000
 11
 580.0000
 21
   0.0000
  0
LINE
  8
200
  6
AUSGEZOGEN
 10
  20.0000
 20
   0.0000
 11
  20.0000
 21
  20.0000
  0
LINE
  8
200
  6
AUSGEZOGEN
 10
  50.0000
 20
   0.0000
 11
  20.0000
 21
   0.0000
  0
LINE
  8
200
  6
AUSGEZOGEN
 10
  20.0000
 20
  20.0000
 11
  50.0000
 21
  20.0000
  0
LINE
  8
200
  6
AUSGEZOGEN
 10
  50.0000
 20
   0.0000
 11
  50.0000
 21
  20.0000
  0
LINE
  8
200
  6
AUSGEZOGEN
 10
 600.0000
 20
 830.0000
 11
 600.0000
 21
  25.0000
  0
LINE
  8
200
  6
AUSGEZOGEN
 10
   0.0000
 20
  25.0000
 11
 600.0000
 21
  25.0000
  0
LINE
  8
200
  6
AUSGEZOGEN
 10
 600.0000
 20
  75.0000
 11
   0.0000
 21
  75.0000
  0
LINE
  8
200
  6
AUSGEZOGEN
 10
 513.0000
 20
  55.0000
 11
 563.0000
 21
  55.0000
  0
LINE
  8
200
  6
AUSGEZOGEN
 10
 563.0000
 20
  65.0000
 11
 513.0000
 21
  65.0000
  0
LINE
  8
200
  6
AUSGEZOGEN
 10
 509.0000
 20
  62.0000
 11
 513.0000
 21
  65.0000
  0
LINE
  8
200
  6
AUSGEZOGEN
 10
 509.0000
 20
  58.0000
 11
 509.0000
 21
  62.0000
  0
LINE
  8
200
  6
AUSGEZOGEN
 10
 513.0000
 20
  55.0000
 11
 509.0000
 21
  58.0000
  0
LINE
  8
200
  6
AUSGEZOGEN
 10
 568.0000
 20
  62.0000
 11
 563.0000
 21
  65.0000
  0
LINE
  8
200
  6
AUSGEZOGEN
 10
 568.0000
 20
  58.0000
 11
 568.0000
 21
  62.0000
  0
LINE
  8
200
  6
AUSGEZOGEN
 10
 563.0000
 20
  55.0000
 11
 568.0000
 21
  58.0000
  0
LINE
  8
200
  6
AUSGEZOGEN
 10
 568.0000
 20
  38.0000
 11
 563.0000
 21
  35.0000
  0
LINE
  8
200
  6
AUSGEZOGEN
 10
 568.0000
 20
  42.0000
 11
 568.0000
 21
  38.0000
  0
LINE
  8
200
  6
AUSGEZOGEN
 10
 563.0000
 20
  45.0000
 11
 568.0000
 21
  42.0000
  0
LINE
  8
200
  6
AUSGEZOGEN
 10
 509.0000
 20
  38.0000
 11
 513.0000
 21
  35.0000
  0
LINE
  8
200
  6
AUSGEZOGEN
 10
 509.0000
 20
  42.0000
 11
 509.0000
 21
  38.0000
  0
LINE
  8
200
  6
AUSGEZOGEN
 10
 513.0000
 20
  45.0000
 11
 509.0000
 21
  42.0000
  0
LINE
  8
200
  6
AUSGEZOGEN
 10
 563.0000
 20
  45.0000
 11
 513.0000
 21
  45.0000
  0
LINE
  8
200
  6
AUSGEZOGEN
 10
 513.0000
 20
  35.0000
 11
 563.0000
 21
  35.0000
  0
LINE
  8
200
  6
AUSGEZOGEN
 10
 433.0000
 20
  55.0000
 11
 483.0000
 21
  55.0000
  0
LINE
  8
200
  6
AUSGEZOGEN
 10
 483.0000
 20
  65.0000
 11
 433.0000
 21
  65.0000
  0
LINE
  8
200
  6
AUSGEZOGEN
 10
 429.0000
 20
  62.0000
 11
 433.0000
 21
  65.0000
  0
LINE
  8
200
  6
AUSGEZOGEN
 10
 429.0000
 20
  58.0000
 11
 429.0000
 21
  62.0000
  0
LINE
  8
200
  6
AUSGEZOGEN
 10
 433.0000
 20
  55.0000
 11
 429.0000
 21
  58.0000
  0
LINE
  8
200
  6
AUSGEZOGEN
 10
 488.0000
 20
  62.0000
 11
 483.0000
 21
  65.0000
  0
LINE
  8
200
  6
AUSGEZOGEN
 10
 488.0000
 20
  58.0000
 11
 488.0000
 21
  62.0000
  0
LINE
  8
200
  6
AUSGEZOGEN
 10
 483.0000
 20
  55.0000
 11
 488.0000
 21
  58.0000
  0
LINE
  8
200
  6
AUSGEZOGEN
 10
 488.0000
 20
  38.0000
 11
 483.0000
 21
  35.0000
  0
LINE
  8
200
  6
AUSGEZOGEN
 10
 488.0000
 20
  42.0000
 11
 488.0000
 21
  38.0000
  0
LINE
  8
200
  6
AUSGEZOGEN
 10
 483.0000
 20
  45.0000
 11
 488.0000
 21
  42.0000
  0
LINE
  8
200
  6
AUSGEZOGEN
 10
 429.0000
 20
  38.0000
 11
 433.0000
 21
  35.0000
  0
LINE
  8
200
  6
AUSGEZOGEN
 10
 429.0000
 20
  42.0000
 11
 429.0000
 21
  38.0000
  0
LINE
  8
200
  6
AUSGEZOGEN
 10
 433.0000
 20
  45.0000
 11
 429.0000
 21
  42.0000
  0
LINE
  8
200
  6
AUSGEZOGEN
 10
 483.0000
 20
  45.0000
 11
 433.0000
 21
  45.0000
  0
LINE
  8
200
  6
AUSGEZOGEN
 10
 433.0000
 20
  35.0000
 11
 483.0000
 21
  35.0000
  0
LINE
  8
200
  6
AUSGEZOGEN
 10
 353.0000
 20
  55.0000
 11
 403.0000
 21
  55.0000
  0
LINE
  8
200
  6
AUSGEZOGEN
 10
 403.0000
 20
  65.0000
 11
 353.0000
 21
  65.0000
  0
LINE
  8
200
  6
AUSGEZOGEN
 10
 349.0000
 20
  62.0000
 11
 353.0000
 21
  65.0000
  0
LINE
  8
200
  6
AUSGEZOGEN
 10
 349.0000
 20
  58.0000
 11
 349.0000
 21
  62.0000
  0
LINE
  8
200
  6
AUSGEZOGEN
 10
 353.0000
 20
  55.0000
 11
 349.0000
 21
  58.0000
  0
LINE
  8
200
  6
AUSGEZOGEN
 10
 408.0000
 20
  62.0000
 11
 403.0000
 21
  65.0000
  0
LINE
  8
200
  6
AUSGEZOGEN
 10
 408.0000
 20
  58.0000
 11
 408.0000
 21
  62.0000
  0
LINE
  8
200
  6
AUSGEZOGEN
 10
 403.0000
 20
  55.0000
 11
 408.0000
 21
  58.0000
  0
LINE
  8
200
  6
AUSGEZOGEN
 10
 408.0000
 20
  38.0000
 11
 403.0000
 21
  35.0000
  0
LINE
  8
200
  6
AUSGEZOGEN
 10
 408.0000
 20
  42.0000
 11
 408.0000
 21
  38.0000
  0
LINE
  8
200
  6
AUSGEZOGEN
 10
 403.0000
 20
  45.0000
 11
 408.0000
 21
  42.0000
  0
LINE
  8
200
  6
AUSGEZOGEN
 10
 349.0000
 20
  38.0000
 11
 353.0000
 21
  35.0000
  0
LINE
  8
200
  6
AUSGEZOGEN
 10
 349.0000
 20
  42.0000
 11
 349.0000
 21
  38.0000
  0
LINE
  8
200
  6
AUSGEZOGEN
 10
 353.0000
 20
  45.0000
 11
 349.0000
 21
  42.0000
  0
LINE
  8
200
  6
AUSGEZOGEN
 10
 403.0000
 20
  45.0000
 11
 353.0000
 21
  45.0000
  0
LINE
  8
200
  6
AUSGEZOGEN
 10
 353.0000
 20
  35.0000
 11
 403.0000
 21
  35.0000
  0
LINE
  8
200
  6
AUSGEZOGEN
 10
 273.0000
 20
  55.0000
 11
 323.0000
 21
  55.0000
  0
LINE
  8
200
  6
AUSGEZOGEN
 10
 323.0000
 20
  65.0000
 11
 273.0000
 21
  65.0000
  0
LINE
  8
200
  6
AUSGEZOGEN
 10
 269.0000
 20
  62.0000
 11
 273.0000
 21
  65.0000
  0
LINE
  8
200
  6
AUSGEZOGEN
 10
 269.0000
 20
  58.0000
 11
 269.0000
 21
  62.0000
  0
LINE
  8
200
  6
AUSGEZOGEN
 10
 273.0000
 20
  55.0000
 11
 269.0000
 21
  58.0000
  0
LINE
  8
200
  6
AUSGEZOGEN
 10
 328.0000
 20
  62.0000
 11
 323.0000
 21
  65.0000
  0
LINE
  8
200
  6
AUSGEZOGEN
 10
 328.0000
 20
  58.0000
 11
 328.0000
 21
  62.0000
  0
LINE
  8
200
  6
AUSGEZOGEN
 10
 323.0000
 20
  55.0000
 11
 328.0000
 21
  58.0000
  0
LINE
  8
200
  6
AUSGEZOGEN
 10
 328.0000
 20
  38.0000
 11
 323.0000
 21
  35.0000
  0
LINE
  8
200
  6
AUSGEZOGEN
 10
 328.0000
 20
  42.0000
 11
 328.0000
 21
  38.0000
  0
LINE
  8
200
  6
AUSGEZOGEN
 10
 323.0000
 20
  45.0000
 11
 328.0000
 21
  42.0000
  0
LINE
  8
200
  6
AUSGEZOGEN
 10
 269.0000
 20
  38.0000
 11
 273.0000
 21
  35.0000
  0
LINE
  8
200
  6
AUSGEZOGEN
 10
 269.0000
 20
  42.0000
 11
 269.0000
 21
  38.0000
  0
LINE
  8
200
  6
AUSGEZOGEN
 10
 273.0000
 20
  45.0000
 11
 269.0000
 21
  42.0000
  0
LINE
  8
200
  6
AUSGEZOGEN
 10
 323.0000
 20
  45.0000
 11
 273.0000
 21
  45.0000
  0
LINE
  8
200
  6
AUSGEZOGEN
 10
 273.0000
 20
  35.0000
 11
 323.0000
 21
  35.0000
  0
LINE
  8
200
  6
AUSGEZOGEN
 10
 193.0000
 20
  55.0000
 11
 243.0000
 21
  55.0000
  0
LINE
  8
200
  6
AUSGEZOGEN
 10
 243.0000
 20
  65.0000
 11
 193.0000
 21
  65.0000
  0
LINE
  8
200
  6
AUSGEZOGEN
 10
 189.0000
 20
  62.0000
 11
 193.0000
 21
  65.0000
  0
LINE
  8
200
  6
AUSGEZOGEN
 10
 189.0000
 20
  58.0000
 11
 189.0000
 21
  62.0000
  0
LINE
  8
200
  6
AUSGEZOGEN
 10
 193.0000
 20
  55.0000
 11
 189.0000
 21
  58.0000
  0
LINE
  8
200
  6
AUSGEZOGEN
 10
 248.0000
 20
  62.0000
 11
 243.0000
 21
  65.0000
  0
LINE
  8
200
  6
AUSGEZOGEN
 10
 248.0000
 20
  58.0000
 11
 248.0000
 21
  62.0000
  0
LINE
  8
200
  6
AUSGEZOGEN
 10
 243.0000
 20
  55.0000
 11
 248.0000
 21
  58.0000
  0
LINE
  8
200
  6
AUSGEZOGEN
 10
 248.0000
 20
  38.0000
 11
 243.0000
 21
  35.0000
  0
LINE
  8
200
  6
AUSGEZOGEN
 10
 248.0000
 20
  42.0000
 11
 248.0000
 21
  38.0000
  0
LINE
  8
200
  6
AUSGEZOGEN
 10
 243.0000
 20
  45.0000
 11
 248.0000
 21
  42.0000
  0
LINE
  8
200
  6
AUSGEZOGEN
 10
 189.0000
 20
  38.0000
 11
 193.0000
 21
  35.0000
  0
LINE
  8
200
  6
AUSGEZOGEN
 10
 189.0000
 20
  42.0000
 11
 189.0000
 21
  38.0000
  0
LINE
  8
200
  6
AUSGEZOGEN
 10
 193.0000
 20
  45.0000
 11
 189.0000
 21
  42.0000
  0
LINE
  8
200
  6
AUSGEZOGEN
 10
 243.0000
 20
  45.0000
 11
 193.0000
 21
  45.0000
  0
LINE
  8
200
  6
AUSGEZOGEN
 10
 193.0000
 20
  35.0000
 11
 243.0000
 21
  35.0000
  0
LINE
  8
200
  6
AUSGEZOGEN
 10
 113.0000
 20
  55.0000
 11
 163.0000
 21
  55.0000
  0
LINE
  8
200
  6
AUSGEZOGEN
 10
 163.0000
 20
  65.0000
 11
 113.0000
 21
  65.0000
  0
LINE
  8
200
  6
AUSGEZOGEN
 10
 109.0000
 20
  62.0000
 11
 113.0000
 21
  65.0000
  0
LINE
  8
200
  6
AUSGEZOGEN
 10
 109.0000
 20
  58.0000
 11
 109.0000
 21
  62.0000
  0
LINE
  8
200
  6
AUSGEZOGEN
 10
 113.0000
 20
  55.0000
 11
 109.0000
 21
  58.0000
  0
LINE
  8
200
  6
AUSGEZOGEN
 10
 168.0000
 20
  62.0000
 11
 163.0000
 21
  65.0000
  0
LINE
  8
200
  6
AUSGEZOGEN
 10
 168.0000
 20
  58.0000
 11
 168.0000
 21
  62.0000
  0
LINE
  8
200
  6
AUSGEZOGEN
 10
 163.0000
 20
  55.0000
 11
 168.0000
 21
  58.0000
  0
LINE
  8
200
  6
AUSGEZOGEN
 10
 168.0000
 20
  38.0000
 11
 163.0000
 21
  35.0000
  0
LINE
  8
200
  6
AUSGEZOGEN
 10
 168.0000
 20
  42.0000
 11
 168.0000
 21
  38.0000
  0
LINE
  8
200
  6
AUSGEZOGEN
 10
 163.0000
 20
  45.0000
 11
 168.0000
 21
  42.0000
  0
LINE
  8
200
  6
AUSGEZOGEN
 10
 109.0000
 20
  38.0000
 11
 113.0000
 21
  35.0000
  0
LINE
  8
200
  6
AUSGEZOGEN
 10
 109.0000
 20
  42.0000
 11
 109.0000
 21
  38.0000
  0
LINE
  8
200
  6
AUSGEZOGEN
 10
 113.0000
 20
  45.0000
 11
 109.0000
 21
  42.0000
  0
LINE
  8
200
  6
AUSGEZOGEN
 10
 163.0000
 20
  45.0000
 11
 113.0000
 21
  45.0000
  0
LINE
  8
200
  6
AUSGEZOGEN
 10
 113.0000
 20
  35.0000
 11
 163.0000
 21
  35.0000
  0
LINE
  8
200
  6
AUSGEZOGEN
 10
  35.0000
 20
  55.0000
 11
  85.0000
 21
  55.0000
  0
LINE
  8
200
  6
AUSGEZOGEN
 10
  85.0000
 20
  65.0000
 11
  35.0000
 21
  65.0000
  0
LINE
  8
200
  6
AUSGEZOGEN
 10
  31.0000
 20
  62.0000
 11
  35.0000
 21
  65.0000
  0
LINE
  8
200
  6
AUSGEZOGEN
 10
  31.0000
 20
  58.0000
 11
  31.0000
 21
  62.0000
  0
LINE
  8
200
  6
AUSGEZOGEN
 10
  35.0000
 20
  55.0000
 11
  31.0000
 21
  58.0000
  0
LINE
  8
200
  6
AUSGEZOGEN
 10
  90.0000
 20
  62.0000
 11
  85.0000
 21
  65.0000
  0
LINE
  8
200
  6
AUSGEZOGEN
 10
  90.0000
 20
  58.0000
 11
  90.0000
 21
  62.0000
  0
LINE
  8
200
  6
AUSGEZOGEN
 10
  85.0000
 20
  55.0000
 11
  90.0000
 21
  58.0000
  0
LINE
  8
200
  6
AUSGEZOGEN
 10
  90.0000
 20
  38.0000
 11
  85.0000
 21
  35.0000
  0
LINE
  8
200
  6
AUSGEZOGEN
 10
  90.0000
 20
  42.0000
 11
  90.0000
 21
  38.0000
  0
LINE
  8
200
  6
AUSGEZOGEN
 10
  85.0000
 20
  45.0000
 11
  90.0000
 21
  42.0000
  0
LINE
  8
200
  6
AUSGEZOGEN
 10
  31.0000
 20
  38.0000
 11
  35.0000
 21
  35.0000
  0
LINE
  8
200
  6
AUSGEZOGEN
 10
  31.0000
 20
  42.0000
 11
  31.0000
 21
  38.0000
  0
LINE
  8
200
  6
AUSGEZOGEN
 10
  35.0000
 20
  45.0000
 11
  31.0000
 21
  42.0000
  0
LINE
  8
200
  6
AUSGEZOGEN
 10
  85.0000
 20
  45.0000
 11
  35.0000
 21
  45.0000
  0
LINE
  8
200
  6
AUSGEZOGEN
 10
  35.0000
 20
  35.0000
 11
  85.0000
 21
  35.0000
  0
LINE
  8
200
  6
AUSGEZOGEN
 10
   0.0000
 20
 830.0000
 11
   0.0000
 21
  25.0000
  0
TEXT
  8
400
 10
 750.0000
 20
 710.0000
 40
  45.0000
  1
EZ: 230V 50Hz, 0,6A 0,1kW
 50
   0.0000
 41
   0.6000
  7
STANDARD
  0
ATTDEF
  8
550
 10
10.0
 20
100.0
 30
0.0
 40
30
  1
LIE-998818900
  2
LIE-998818900V_deu
  3
HKI-Nummer
 70
1
  0
TEXT
  8
510
 10
10.0
 20
-45.0
 30
0.0
 40
30
  1
LIE-998818900
 50
0.0
 41
1.0
  7
STANDARD
  0
ENDSEC
  0
EOF
