  0
SECTION
  2
HEADER
  9
$ACADVER
  1
AC1009
  9
$INSBASE
 10
   0.0000
 20
 650.0000
 30
    0.0
  9
$EXTMIN
 10
-135.3440
 20
-122.0000
 30
   0.0000
  9
$EXTMAX
 10
1353.4400
 20
 725.0000
 30
   0.0000
  9
$REGENMODE
 70
1
  9
$LTSCALE
 40
1.00
  9
$PSLTSCALE
 70
1
  0
ENDSEC
  0
SECTION
  2
TABLES
  0
TABLE
  2
LTYPE
 70
  5
  0
LTYPE
  2
AUSGEZOGEN
 70
 64
  3
AUSGEZOGEN
 72
 65
 73
  0
 40
0.0
  0
LTYPE
  2
PUNKTIERT
 70
 64
  3
Gepunktet
 72
 65
 73
  2
 40
30.0000
 49
0.0
 49
-30.0000
  0
LTYPE
  2
GESTRICHELT
 70
 64
  3
Strichliert
 72
 65
 73
  2
 40
80.0000
 49
50.0000
 49
-30.0000
  0
LTYPE
  2
STRICHPUNKT
 70
 64
  3
Strichpunktet
 72
 65
 73
  4
 40
160.0000
 49
100.0000
 49
-30.0000
 49
0.0
 49
-30.0000
  0
LTYPE
  2
GETRENNT
 70
 64
  3
Strichpunktpunktet
 72
 65
 73
  6
 40
190.0000
 49
100.0000
 49
-30.0000
 49
0.0
 49
-30.0000
 49
0.0
 49
-30.0000
  0
ENDTAB
  0
TABLE
  2
LAYER
 70
5
  0
LAYER
  2
550
 70
  0
 62
  2
  6
AUSGEZOGEN
  0
LAYER
  2
510
 70
  0
 62
  2
  6
AUSGEZOGEN
  0
LAYER
  2
0
 70
  0
 62
  1
  6
AUSGEZOGEN
  0
LAYER
  2
200
 70
  0
 62
  7
  6
AUSGEZOGEN
  0
LAYER
  2
400
 70
  0
 62
  4
  6
AUSGEZOGEN
  0
ENDTAB
  0
TABLE
  2
STYLE
 70
  1
  0
STYLE
  2
STANDARD
 70
 64
 40
0.0
 41
1.0
 50
0.0
 71
  0
 42
30.0
  3
TXT.SHX
  4

  0
ENDTAB
  0
ENDSEC
  0
SECTION
  2
ENTITIES
  0
LINE
  8
400
  6
AUSGEZOGEN
 10
 300.0000
 20
 650.0000
 11
 736.5000
 21
 516.5000
  0
LINE
  8
400
  6
AUSGEZOGEN
 10
1353.4400
 20
 516.5000
 11
 736.5000
 21
 516.5000
  0
CIRCLE
  8
400
  6
AUSGEZOGEN
 10
 300.0000
 20
 650.0000
 40
  50.0000
  0
LINE
  8
400
  6
AUSGEZOGEN
 10
 375.0000
 20
 650.0000
 11
 300.0000
 21
 650.0000
  0
LINE
  8
400
  6
AUSGEZOGEN
 10
 225.0000
 20
 650.0000
 11
 300.0000
 21
 650.0000
  0
LINE
  8
400
  6
AUSGEZOGEN
 10
 300.0000
 20
 725.0000
 11
 300.0000
 21
 650.0000
  0
LINE
  8
400
  6
AUSGEZOGEN
 10
 300.0000
 20
 575.0000
 11
 300.0000
 21
 650.0000
  0
LINE
  8
200
  6
AUSGEZOGEN
 10
  30.0000
 20
   7.0000
 11
  30.0000
 21
  13.0000
  0
LINE
  8
200
  6
AUSGEZOGEN
 10
  17.0000
 20
   0.0000
 11
  23.0000
 21
   0.0000
  0
LINE
  8
200
  6
AUSGEZOGEN
 10
  10.0000
 20
  13.0000
 11
  10.0000
 21
   7.0000
  0
LINE
  8
200
  6
AUSGEZOGEN
 10
  13.0000
 20
  17.0000
 11
  10.0000
 21
  13.0000
  0
LINE
  8
200
  6
AUSGEZOGEN
 10
  17.0000
 20
  20.0000
 11
  13.0000
 21
  17.0000
  0
LINE
  8
200
  6
AUSGEZOGEN
 10
  23.0000
 20
  20.0000
 11
  17.0000
 21
  20.0000
  0
LINE
  8
200
  6
AUSGEZOGEN
 10
  27.0000
 20
  17.0000
 11
  23.0000
 21
  20.0000
  0
LINE
  8
200
  6
AUSGEZOGEN
 10
  30.0000
 20
  13.0000
 11
  27.0000
 21
  17.0000
  0
LINE
  8
200
  6
AUSGEZOGEN
 10
  27.0000
 20
   3.0000
 11
  30.0000
 21
   7.0000
  0
LINE
  8
200
  6
AUSGEZOGEN
 10
  23.0000
 20
   0.0000
 11
  27.0000
 21
   3.0000
  0
LINE
  8
200
  6
AUSGEZOGEN
 10
  13.0000
 20
   3.0000
 11
  17.0000
 21
   0.0000
  0
LINE
  8
200
  6
AUSGEZOGEN
 10
  10.0000
 20
   7.0000
 11
  13.0000
 21
   3.0000
  0
LINE
  8
200
  6
AUSGEZOGEN
 10
   5.0000
 20
  40.0000
 11
  17.0000
 21
  20.0000
  0
LINE
  8
200
  6
AUSGEZOGEN
 10
  13.0000
 20
  17.0000
 11
   0.0000
 21
  38.0000
  0
LINE
  8
200
  6
AUSGEZOGEN
 10
   5.0000
 20
  50.0000
 11
   5.0000
 21
  40.0000
  0
LINE
  8
200
  6
AUSGEZOGEN
 10
 600.0000
 20
 650.0000
 11
   0.0000
 21
 650.0000
  0
LINE
  8
200
  6
AUSGEZOGEN
 10
   0.0000
 20
  90.0000
 11
 600.0000
 21
  90.0000
  0
LINE
  8
200
  6
AUSGEZOGEN
 10
   0.0000
 20
 650.0000
 11
   0.0000
 21
  38.0000
  0
LINE
  8
200
  6
AUSGEZOGEN
 10
 600.0000
 20
  50.0000
 11
 600.0000
 21
 650.0000
  0
LINE
  8
200
  6
AUSGEZOGEN
 10
  75.0000
 20
  49.0000
 11
  75.0000
 21
  50.0000
  0
LINE
  8
200
  6
AUSGEZOGEN
 10
 600.0000
 20
  50.0000
 11
   0.0000
 21
  50.0000
  0
LINE
  8
200
  6
AUSGEZOGEN
 10
 175.0000
 20
  49.0000
 11
 175.0000
 21
  50.0000
  0
LINE
  8
200
  6
AUSGEZOGEN
 10
  75.0000
 20
  49.0000
 11
 175.0000
 21
  49.0000
  0
TEXT
  8
400
 10
 750.0000
 20
 530.0000
 40
  45.0000
  1
EZ: 230V 50Hz, 1,0A 0,1kW
 50
   0.0000
 41
   0.6000
  7
STANDARD
  0
ATTDEF
  8
550
 10
10.0
 20
100.0
 30
0.0
 40
30
  1
LIE-998255300
  2
LIE-998255300D_deu
  3
HKI-Nummer
 70
1
  0
TEXT
  8
510
 10
10.0
 20
-45.0
 30
0.0
 40
30
  1
LIE-998255300
 50
0.0
 41
1.0
  7
STANDARD
  0
ENDSEC
  0
EOF
